  0
SECTION
  2
HEADER
  9
$ACADVER
  1
AC1015
  9
$ACADMAINTVER
 70
     6
  9
$DWGCODEPAGE
  3
ANSI_1254
  9
$INSBASE
 10
0.0
 20
0.0
 30
0.0
  9
$EXTMIN
 10
0.0
 20
0.0
 30
0.0
  9
$EXTMAX
 10
279.4
 20
215.9
 30
0.0
  9
$LIMMIN
 10
0.0
 20
0.0
  9
$LIMMAX
 10
279.4
 20
215.9
  9
$ORTHOMODE
 70
     0
  9
$REGENMODE
 70
     1
  9
$FILLMODE
 70
     1
  9
$QTEXTMODE
 70
     0
  9
$MIRRTEXT
 70
     1
  9
$LTSCALE
 40
1.0
  9
$ATTMODE
 70
     1
  9
$TEXTSIZE
 40
3.5
  9
$TRACEWID
 40
1.0
  9
$TEXTSTYLE
  7
Standard
  9
$CLAYER
  8
0
  9
$CELTYPE
  6
ByLayer
  9
$CECOLOR
 62
   256
  9
$CELTSCALE
 40
1.0
  9
$DISPSILH
 70
     0
  9
$DIMSCALE
 40
1.0
  9
$DIMASZ
 40
3.5
  9
$DIMEXO
 40
1.0
  9
$DIMDLI
 40
3.75
  9
$DIMRND
 40
0.0
  9
$DIMDLE
 40
0.0
  9
$DIMEXE
 40
1.0
  9
$DIMTP
 40
0.0
  9
$DIMTM
 40
0.0
  9
$DIMTXT
 40
3.5
  9
$DIMCEN
 40
2.5
  9
$DIMTSZ
 40
0.0
  9
$DIMTOL
 70
     0
  9
$DIMLIM
 70
     0
  9
$DIMTIH
 70
     1
  9
$DIMTOH
 70
     1
  9
$DIMSE1
 70
     0
  9
$DIMSE2
 70
     0
  9
$DIMTAD
 70
     1
  9
$DIMZIN
 70
     0
  9
$DIMBLK
  1

  9
$DIMASO
 70
     1
  9
$DIMSHO
 70
     1
  9
$DIMPOST
  1

  9
$DIMAPOST
  1

  9
$DIMALT
 70
     0
  9
$DIMALTD
 70
     3
  9
$DIMALTF
 40
0.0393700787
  9
$DIMLFAC
 40
1.0
  9
$DIMTOFL
 70
     1
  9
$DIMTVP
 40
0.0
  9
$DIMTIX
 70
     0
  9
$DIMSOXD
 70
     0
  9
$DIMSAH
 70
     0
  9
$DIMBLK1
  1

  9
$DIMBLK2
  1

  9
$DIMSTYLE
  2
ISO-25
  9
$DIMCLRD
 70
     0
  9
$DIMCLRE
 70
     0
  9
$DIMCLRT
 70
     0
  9
$DIMTFAC
 40
1.0
  9
$DIMGAP
 40
1.524
  9
$DIMJUST
 70
     0
  9
$DIMSD1
 70
     0
  9
$DIMSD2
 70
     0
  9
$DIMTOLJ
 70
     0
  9
$DIMTZIN
 70
     0
  9
$DIMALTZ
 70
     0
  9
$DIMALTTZ
 70
     0
  9
$DIMUPT
 70
     0
  9
$DIMDEC
 70
     2
  9
$DIMTDEC
 70
     2
  9
$DIMALTU
 70
     2
  9
$DIMALTTD
 70
     3
  9
$DIMTXSTY
  7
Standard
  9
$DIMAUNIT
 70
     0
  9
$DIMADEC
 70
     2
  9
$DIMALTRND
 40
0.0
  9
$DIMAZIN
 70
     0
  9
$DIMDSEP
 70
    44
  9
$DIMATFIT
 70
     3
  9
$DIMFRAC
 70
     0
  9
$DIMLDRBLK
  1

  9
$DIMLUNIT
 70
     2
  9
$DIMLWD
 70
    -2
  9
$DIMLWE
 70
    -2
  9
$DIMTMOVE
 70
     0
  9
$LUNITS
 70
     2
  9
$LUPREC
 70
     2
  9
$SKETCHINC
 40
1.0
  9
$FILLETRAD
 40
10.0
  9
$AUNITS
 70
     0
  9
$AUPREC
 70
     2
  9
$MENU
  1
.
  9
$ELEVATION
 40
0.0
  9
$PELEVATION
 40
0.0
  9
$THICKNESS
 40
0.0
  9
$LIMCHECK
 70
     0
  9
$CHAMFERA
 40
0.0
  9
$CHAMFERB
 40
0.0
  9
$CHAMFERC
 40
0.0
  9
$CHAMFERD
 40
0.0
  9
$SKPOLY
 70
     0
  9
$TDCREATE
 40
2458985.708822917
  9
$TDUCREATE
 40
2458985.583822917
  9
$TDUPDATE
 40
2458985.708823183
  9
$TDUUPDATE
 40
2458985.583823183
  9
$TDINDWG
 40
0.0000000116
  9
$TDUSRTIMER
 40
0.0000000116
  9
$USRTIMER
 70
     1
  9
$ANGBASE
 50
0.0
  9
$ANGDIR
 70
     0
  9
$PDMODE
 70
     0
  9
$PDSIZE
 40
-1.0
  9
$PLINEWID
 40
0.0
  9
$SPLFRAME
 70
     0
  9
$SPLINETYPE
 70
     6
  9
$SPLINESEGS
 70
     8
  9
$HANDSEED
  5
10B
  9
$SURFTAB1
 70
     6
  9
$SURFTAB2
 70
     6
  9
$SURFTYPE
 70
     6
  9
$SURFU
 70
     6
  9
$SURFV
 70
     6
  9
$UCSBASE
  2

  9
$UCSNAME
  2

  9
$UCSORG
 10
0.0
 20
0.0
 30
0.0
  9
$UCSXDIR
 10
1.0
 20
0.0
 30
0.0
  9
$UCSYDIR
 10
0.0
 20
1.0
 30
0.0
  9
$UCSORTHOREF
  2

  9
$UCSORTHOVIEW
 70
     0
  9
$UCSORGTOP
 10
0.0
 20
0.0
 30
0.0
  9
$UCSORGBOTTOM
 10
0.0
 20
0.0
 30
0.0
  9
$UCSORGLEFT
 10
0.0
 20
0.0
 30
0.0
  9
$UCSORGRIGHT
 10
0.0
 20
0.0
 30
0.0
  9
$UCSORGFRONT
 10
0.0
 20
0.0
 30
0.0
  9
$UCSORGBACK
 10
0.0
 20
0.0
 30
0.0
  9
$PUCSBASE
  2

  9
$PUCSNAME
  2

  9
$PUCSORG
 10
0.0
 20
0.0
 30
0.0
  9
$PUCSXDIR
 10
1.0
 20
0.0
 30
0.0
  9
$PUCSYDIR
 10
0.0
 20
1.0
 30
0.0
  9
$PUCSORTHOREF
  2

  9
$PUCSORTHOVIEW
 70
     0
  9
$PUCSORGTOP
 10
0.0
 20
0.0
 30
0.0
  9
$PUCSORGBOTTOM
 10
0.0
 20
0.0
 30
0.0
  9
$PUCSORGLEFT
 10
0.0
 20
0.0
 30
0.0
  9
$PUCSORGRIGHT
 10
0.0
 20
0.0
 30
0.0
  9
$PUCSORGFRONT
 10
0.0
 20
0.0
 30
0.0
  9
$PUCSORGBACK
 10
0.0
 20
0.0
 30
0.0
  9
$USERI1
 70
     0
  9
$USERI2
 70
     0
  9
$USERI3
 70
     0
  9
$USERI4
 70
     0
  9
$USERI5
 70
     0
  9
$USERR1
 40
0.0
  9
$USERR2
 40
0.0
  9
$USERR3
 40
0.0
  9
$USERR4
 40
0.0
  9
$USERR5
 40
0.0
  9
$WORLDVIEW
 70
     1
  9
$SHADEDGE
 70
     3
  9
$SHADEDIF
 70
    70
  9
$TILEMODE
 70
     1
  9
$MAXACTVP
 70
    64
  9
$PINSBASE
 10
0.0
 20
0.0
 30
0.0
  9
$PLIMCHECK
 70
     0
  9
$PEXTMIN
 10
1.0000000000E+20
 20
1.0000000000E+20
 30
1.0000000000E+20
  9
$PEXTMAX
 10
-1.0000000000E+20
 20
-1.0000000000E+20
 30
-1.0000000000E+20
  9
$PLIMMIN
 10
0.0
 20
0.0
  9
$PLIMMAX
 10
420.0
 20
297.0
  9
$UNITMODE
 70
     0
  9
$VISRETAIN
 70
     1
  9
$PLINEGEN
 70
     0
  9
$PSLTSCALE
 70
     1
  9
$TREEDEPTH
 70
  3020
  9
$CMLSTYLE
  2
Standard
  9
$CMLJUST
 70
     0
  9
$CMLSCALE
 40
20.0
  9
$PROXYGRAPHICS
 70
     1
  9
$MEASUREMENT
 70
     1
  9
$CELWEIGHT
370
    -1
  9
$ENDCAPS
280
     0
  9
$JOINSTYLE
280
     0
  9
$LWDISPLAY
290
     1
  9
$INSUNITS
 70
     4
  9
$HYPERLINKBASE
  1

  9
$STYLESHEET
  1

  9
$XEDIT
290
     1
  9
$CEPSNTYPE
380
     0
  9
$PSTYLEMODE
290
     1
  9
$FINGERPRINTGUID
  2
{d52aad79-b550-4a97-9ff3-69541db2cd7c}
  9
$VERSIONGUID
  2
{FAEB1C32-E019-11D5-929B-00C0DF256EC4}
  9
$EXTNAMES
290
     1
  9
$PSVPSCALE
 40
0.0
  9
$OLESTARTUP
290
     0
  0
ENDSEC
  0
SECTION
  2
CLASSES
  0
CLASS
  1
ACDBDICTIONARYWDFLT
  2
AcDbDictionaryWithDefault
  3
ObjectDBX Classes
 90
        0
280
     0
281
     0
  0
CLASS
  1
VISUALSTYLE
  2
AcDbVisualStyle
  3
ObjectDBX Classes
 90
     4095
280
     0
281
     0
  0
CLASS
  1
MATERIAL
  2
AcDbMaterial
  3
ObjectDBX Classes
 90
     1153
280
     0
281
     0
  0
CLASS
  1
SCALE
  2
AcDbScale
  3
ObjectDBX Classes
 90
     1153
280
     0
281
     0
  0
CLASS
  1
TABLESTYLE
  2
AcDbTableStyle
  3
ObjectDBX Classes
 90
     4095
280
     0
281
     0
  0
CLASS
  1
MLEADERSTYLE
  2
AcDbMLeaderStyle
  3
ACDB_MLEADERSTYLE_CLASS
 90
     4095
280
     0
281
     0
  0
CLASS
  1
SUN
  2
AcDbSun
  3
SCENEOE
 90
     1153
280
     0
281
     0
  0
CLASS
  1
ACDBPLACEHOLDER
  2
AcDbPlaceHolder
  3
ObjectDBX Classes
 90
        0
280
     0
281
     0
  0
CLASS
  1
LAYOUT
  2
AcDbLayout
  3
ObjectDBX Classes
 90
        0
280
     0
281
     0
  0
ENDSEC
  0
SECTION
  2
TABLES
  0
TABLE
  2
VPORT
  5
8
330
0
100
AcDbSymbolTable
 70
     1
  0
VPORT
  5
29
330
8
100
AcDbSymbolTableRecord
100
AcDbViewportTableRecord
  2
*Active
 70
     0
 10
0.0
 20
0.0
 11
1.0
 21
1.0
 12
139.7
 22
107.95
 13
0.0
 23
0.0
 14
10.0
 24
10.0
 15
10.0
 25
10.0
 16
0.0
 26
0.0
 36
1.0
 17
0.0
 27
0.0
 37
0.0
 40
215.9
 41
1.2941176471
 42
50.0
 43
0.0
 44
0.0
 50
0.0
 51
0.0
 71
     0
 72
  2000
 73
     1
 74
     3
 75
     0
 76
     0
 77
     0
 78
     0
281
     0
 65
     1
110
0.0
120
0.0
130
0.0
111
1.0
121
0.0
131
0.0
112
0.0
122
1.0
132
0.0
 79
     0
146
0.0
  0
ENDTAB
  0
TABLE
  2
LTYPE
  5
5
330
0
100
AcDbSymbolTable
 70
     6
  0
LTYPE
  5
14
330
5
100
AcDbSymbolTableRecord
100
AcDbLinetypeTableRecord
  2
ByBlock
 70
     0
  3

 72
    65
 73
     0
 40
0.0
  0
LTYPE
  5
15
330
5
100
AcDbSymbolTableRecord
100
AcDbLinetypeTableRecord
  2
ByLayer
 70
     0
  3

 72
    65
 73
     0
 40
0.0
  0
LTYPE
  5
16
330
5
100
AcDbSymbolTableRecord
100
AcDbLinetypeTableRecord
  2
Continuous
 70
     0
  3
Solid line
 72
    65
 73
     0
 40
0.0
  0
LTYPE
  5
6E
330
5
100
AcDbSymbolTableRecord
100
AcDbLinetypeTableRecord
  2
HIDDEN
 70
     0
  3
Hidden __ __ __ __ __ __ __ __ __ __ __ __ __ __
 72
    65
 73
     2
 40
1.905
 49
1.27
 74
     0
 49
-0.635
 74
     0
  0
LTYPE
  5
6F
330
5
100
AcDbSymbolTableRecord
100
AcDbLinetypeTableRecord
  2
PHANTOM
 70
     0
  3
Phantom ______  __  __  ______  __  __  ______
 72
    65
 73
     6
 40
12.7
 49
6.35
 74
     0
 49
-1.27
 74
     0
 49
1.27
 74
     0
 49
-1.27
 74
     0
 49
1.27
 74
     0
 49
-1.27
 74
     0
  0
LTYPE
  5
70
330
5
100
AcDbSymbolTableRecord
100
AcDbLinetypeTableRecord
  2
CENTER
 70
     0
  3
Center ____ _ ____ _ ____ _ ____ _ ____ _ ____
 72
    65
 73
     4
 40
10.16
 49
6.35
 74
     0
 49
-1.27
 74
     0
 49
1.27
 74
     0
 49
-1.27
 74
     0
  0
LTYPE
  5
71
330
5
100
AcDbSymbolTableRecord
100
AcDbLinetypeTableRecord
  2
CENTERX2
 70
     0
  3
Center (2x) ________  __  ________  __  _____
 72
    65
 73
     4
 40
20.32
 49
12.7
 74
     0
 49
-2.54
 74
     0
 49
2.54
 74
     0
 49
-2.54
 74
     0
  0
LTYPE
  5
72
330
5
100
AcDbSymbolTableRecord
100
AcDbLinetypeTableRecord
  2
DOT2
 70
     0
  3
Dot (.5x) ........................................
 72
    65
 73
     2
 40
0.635
 49
0.0
 74
     0
 49
-0.635
 74
     0
  0
ENDTAB
  0
TABLE
  2
LAYER
  5
2
330
0
100
AcDbSymbolTable
 70
    17
  0
LAYER
  5
10
330
2
100
AcDbSymbolTableRecord
100
AcDbLayerTableRecord
  2
0
 70
     0
 62
     7
  6
Continuous
370
    -3
390
F
  0
LAYER
  5
73
330
2
100
AcDbSymbolTableRecord
100
AcDbLayerTableRecord
  2
FORMAT
 70
     0
 62
     7
  6
Continuous
370
    -3
390
F
  0
LAYER
  5
74
330
2
100
AcDbSymbolTableRecord
100
AcDbLayerTableRecord
  2
YARDIMCI_GEOMETRI
 70
     0
 62
    -6
  6
Continuous
290
     0
370
    -3
390
F
  0
LAYER
  5
75
330
2
100
AcDbSymbolTableRecord
100
AcDbLayerTableRecord
  2
SAYFA_CERCEVESI
 70
     0
 62
     7
  6
Continuous
370
    25
390
F
  0
LAYER
  5
76
330
2
100
AcDbSymbolTableRecord
100
AcDbLayerTableRecord
  2
ANTET
 70
     0
 62
     7
  6
Continuous
370
    -3
390
F
  0
LAYER
  5
77
330
2
100
AcDbSymbolTableRecord
100
AcDbLayerTableRecord
  2
OLCU
 70
     0
 62
   150
  6
Continuous
370
    -3
390
F
  0
LAYER
  5
78
330
2
100
AcDbSymbolTableRecord
100
AcDbLayerTableRecord
  2
METIN
 70
     0
 62
    96
  6
Continuous
370
    -3
390
F
  0
LAYER
  5
79
330
2
100
AcDbSymbolTableRecord
100
AcDbLayerTableRecord
  2
BALON
 70
     0
 62
     5
  6
Continuous
370
    -3
390
F
  0
LAYER
  5
7A
330
2
100
AcDbSymbolTableRecord
100
AcDbLayerTableRecord
  2
VURGU
 70
     0
 62
     7
  6
Continuous
370
    -3
390
F
  0
LAYER
  5
7B
330
2
100
AcDbSymbolTableRecord
100
AcDbLayerTableRecord
  2
SILIK
 70
     0
 62
     7
  6
Continuous
370
    -3
390
F
  0
LAYER
  5
7C
330
2
100
AcDbSymbolTableRecord
100
AcDbLayerTableRecord
  2
MODEL
 70
     0
 62
     7
  6
Continuous
370
    -3
390
F
  0
LAYER
  5
7D
330
2
100
AcDbSymbolTableRecord
100
AcDbLayerTableRecord
  2
DETAYLANDıRMA
 70
     0
 62
   190
  6
Continuous
370
    -3
390
F
  0
LAYER
  5
7E
330
2
100
AcDbSymbolTableRecord
100
AcDbLayerTableRecord
  2
TOLERANS
 70
     0
 62
   230
  6
Continuous
370
    -3
390
F
  0
LAYER
  5
7F
330
2
100
AcDbSymbolTableRecord
100
AcDbLayerTableRecord
  2
MERKEZ_CIZGILERI
 70
     0
 62
    30
  6
Continuous
370
    -3
390
F
  0
LAYER
  5
80
330
2
100
AcDbSymbolTableRecord
100
AcDbLayerTableRecord
  2
KESIT-DETAY_CIZGILERI
 70
     0
 62
     7
  6
Continuous
370
    -3
390
F
  0
LAYER
  5
81
330
2
100
AcDbSymbolTableRecord
100
AcDbLayerTableRecord
  2
\U+041E\U+0421\U+0415\U+0412\U+042B\U+0415
 70
     0
 62
     7
  6
Continuous
370
    -3
390
F
  0
LAYER
  5
82
330
2
100
AcDbSymbolTableRecord
100
AcDbLayerTableRecord
  2
\U+0412\U+041E\U+0414\U+042F\U+041D\U+042B\U+0415_\U+0417\U+041D\U+0410\U+041A\U+0418
 70
     0
 62
    11
  6
Continuous
370
    -3
390
F
  0
ENDTAB
  0
TABLE
  2
STYLE
  5
3
330
0
100
AcDbSymbolTable
 70
     1
  0
STYLE
  5
11
330
3
100
AcDbSymbolTableRecord
100
AcDbTextStyleTableRecord
  2
Standard
 70
     0
 40
0.0
 41
1.0
 50
0.0
 71
     0
 42
3.5
  3
txt
  4

  0
ENDTAB
  0
TABLE
  2
VIEW
  5
6
330
0
100
AcDbSymbolTable
 70
     0
  0
ENDTAB
  0
TABLE
  2
UCS
  5
7
330
0
100
AcDbSymbolTable
 70
     0
  0
ENDTAB
  0
TABLE
  2
APPID
  5
9
330
0
100
AcDbSymbolTable
 70
     1
  0
APPID
  5
12
330
9
100
AcDbSymbolTableRecord
100
AcDbRegAppTableRecord
  2
ACAD
 70
     0
  0
ENDTAB
  0
TABLE
  2
DIMSTYLE
  5
A
330
0
100
AcDbSymbolTable
 70
     1
100
AcDbDimStyleTable
  0
DIMSTYLE
105
27
330
A
100
AcDbSymbolTableRecord
100
AcDbDimStyleTableRecord
  2
ISO-25
 70
     0
 41
2.5
 42
0.625
 43
3.75
 44
1.25
 73
     0
 74
     0
 77
     1
 78
     8
140
2.5
141
2.5
143
0.0393700787
147
0.625
171
     3
172
     1
178
     0
271
     2
272
     2
274
     3
278
    44
283
     0
284
     8
340
11
  0
ENDTAB
  0
TABLE
  2
BLOCK_RECORD
  5
1
330
0
100
AcDbSymbolTable
 70
     2
  0
BLOCK_RECORD
  5
1F
330
1
100
AcDbSymbolTableRecord
100
AcDbBlockTableRecord
  2
*Model_Space
340
22
  0
BLOCK_RECORD
  5
1B
330
1
100
AcDbSymbolTableRecord
100
AcDbBlockTableRecord
  2
*Paper_Space
340
1E
  0
BLOCK_RECORD
  5
23
330
1
100
AcDbSymbolTableRecord
100
AcDbBlockTableRecord
  2
*Paper_Space0
340
26
  0
BLOCK_RECORD
  5
88
330
1
100
AcDbSymbolTableRecord
100
AcDbBlockTableRecord
  2
SW_CENTERMARKSYMBOL_0
340
0
102
{BLKREFS
331
93
102
}
  0
ENDTAB
  0
ENDSEC
  0
SECTION
  2
BLOCKS
  0
BLOCK
  5
20
330
1F
100
AcDbEntity
  8
0
100
AcDbBlockBegin
  2
*Model_Space
 70
     0
 10
0.0
 20
0.0
 30
0.0
  3
*Model_Space
  1

  0
ENDBLK
  5
21
330
1F
100
AcDbEntity
  8
0
100
AcDbBlockEnd
  0
BLOCK
  5
1C
330
1B
100
AcDbEntity
 67
     1
  8
0
100
AcDbBlockBegin
  2
*Paper_Space
 70
     0
 10
0.0
 20
0.0
 30
0.0
  3
*Paper_Space
  1

  0
ENDBLK
  5
1D
330
1B
100
AcDbEntity
 67
     1
  8
0
100
AcDbBlockEnd
  0
BLOCK
  5
24
330
23
100
AcDbEntity
  8
0
100
AcDbBlockBegin
  2
*Paper_Space0
 70
     0
 10
0.0
 20
0.0
 30
0.0
  3
*Paper_Space0
  1

  0
ENDBLK
  5
25
330
23
100
AcDbEntity
  8
0
100
AcDbBlockEnd
  0
BLOCK
  5
89
330
88
100
AcDbEntity
  8
0
100
AcDbBlockBegin
  2
SW_CENTERMARKSYMBOL_0
 70
     0
 10
0.0
 20
0.0
 30
0.0
  3
SW_CENTERMARKSYMBOL_0
  1

  0
LINE
  5
8B
330
88
100
AcDbEntity
  8
FORMAT
 62
     0
100
AcDbLine
 10
0.0
 20
0.0
 30
0.0
 11
0.0
 21
2.5
 31
0.0
  0
LINE
  5
8C
330
88
100
AcDbEntity
  8
FORMAT
 62
     0
100
AcDbLine
 10
0.0
 20
0.0
 30
0.0
 11
-2.5
 21
0.0
 31
0.0
  0
LINE
  5
8D
330
88
100
AcDbEntity
  8
FORMAT
 62
     0
100
AcDbLine
 10
0.0
 20
0.0
 30
0.0
 11
0.0
 21
-2.5
 31
0.0
  0
LINE
  5
8E
330
88
100
AcDbEntity
  8
FORMAT
 62
     0
100
AcDbLine
 10
0.0
 20
0.0
 30
0.0
 11
2.5
 21
0.0
 31
0.0
  0
LINE
  5
8F
330
88
100
AcDbEntity
  8
FORMAT
 62
     0
100
AcDbLine
 10
0.0
 20
5.0
 30
0.0
 11
0.0
 21
227.5
 31
0.0
  0
LINE
  5
90
330
88
100
AcDbEntity
  8
FORMAT
 62
     0
100
AcDbLine
 10
-5.0
 20
0.0
 30
0.0
 11
-227.5
 21
0.0
 31
0.0
  0
LINE
  5
91
330
88
100
AcDbEntity
  8
FORMAT
 62
     0
100
AcDbLine
 10
0.0
 20
-5.0
 30
0.0
 11
0.0
 21
-227.5
 31
0.0
  0
LINE
  5
92
330
88
100
AcDbEntity
  8
FORMAT
 62
     0
100
AcDbLine
 10
5.0
 20
0.0
 30
0.0
 11
251.3874234093
 21
0.0
 31
0.0
  0
ENDBLK
  5
8A
330
88
100
AcDbEntity
  8
0
100
AcDbBlockEnd
  0
ENDSEC
  0
SECTION
  2
ENTITIES
  0
CIRCLE
  5
83
330
1F
100
AcDbEntity
  8
0
  6
Continuous
 62
     7
370
    25
100
AcDbCircle
 10
144.4702949572
 20
105.1187413391
 30
0.0
 40
157.5
  0
CIRCLE
  5
84
330
1F
100
AcDbEntity
  8
0
  6
Continuous
 62
     7
370
    25
100
AcDbCircle
 10
144.4702949572
 20
105.1187413391
 30
0.0
 40
128.9
  0
CIRCLE
  5
85
330
1F
100
AcDbEntity
  8
0
  6
Continuous
 62
     7
370
    25
100
AcDbCircle
 10
144.4702949572
 20
105.1187413391
 30
0.0
 40
177.5
  0
CIRCLE
  5
86
330
1F
100
AcDbEntity
  8
0
  6
Continuous
 62
     7
370
    25
100
AcDbCircle
 10
144.4702949572
 20
105.1187413391
 30
0.0
 40
200.0
  0
CIRCLE
  5
87
330
1F
100
AcDbEntity
  8
0
  6
Continuous
 62
     7
370
    25
100
AcDbCircle
 10
144.4702949572
 20
105.1187413391
 30
0.0
 40
225.0000000000001
  0
INSERT
  5
93
330
1F
100
AcDbEntity
  8
FORMAT
 62
     7
100
AcDbBlockReference
  2
SW_CENTERMARKSYMBOL_0
 10
144.4702949572
 20
105.1187413391
 30
0.0
  0
LINE
  5
94
330
1F
100
AcDbEntity
  8
0
  6
Continuous
 62
     7
370
    25
100
AcDbLine
 10
691.3977020453
 20
-119.8812586609
 30
0.0
 11
743.3977020453
 21
-119.8812586609
 31
0.0
  0
LINE
  5
95
330
1F
100
AcDbEntity
  8
0
  6
Continuous
 62
     7
370
    25
100
AcDbLine
 10
743.3977020453
 20
330.1187413391
 30
0.0
 11
691.3977020453
 21
330.1187413391
 31
0.0
  0
LINE
  5
96
330
1F
100
AcDbEntity
  8
0
  6
Continuous
 62
     7
370
    25
100
AcDbLine
 10
743.3977020453
 20
-119.8812586609
 30
0.0
 11
749.3236279712
 21
-94.8812586609
 31
0.0
  0
LINE
  5
97
330
1F
100
AcDbEntity
  8
0
  6
Continuous
 62
     7
370
    25
100
AcDbLine
 10
749.3236279712
 20
305.1187413391
 30
0.0
 11
743.3977020453
 21
330.1187413391
 31
0.0
  0
LINE
  5
98
330
1F
100
AcDbEntity
  8
0
  6
Continuous
 62
     7
370
    25
100
AcDbLine
 10
749.3236279712
 20
-94.8812586609
 30
0.0
 11
785.3236279712
 21
-94.8812586609
 31
0.0
  0
LINE
  5
99
330
1F
100
AcDbEntity
  8
0
  6
Continuous
 62
     7
370
    25
100
AcDbLine
 10
785.3236279712
 20
305.1187413391
 30
0.0
 11
749.3236279712
 21
305.1187413391
 31
0.0
  0
LINE
  5
9A
330
1F
100
AcDbEntity
  8
0
  6
Continuous
 62
     7
370
    25
100
AcDbLine
 10
785.3236279712
 20
-94.8812586609
 30
0.0
 11
790.6569613045
 21
-72.3812586609
 31
0.0
  0
LINE
  5
9B
330
1F
100
AcDbEntity
  8
0
  6
Continuous
 62
     7
370
    25
100
AcDbLine
 10
790.6569613045
 20
282.6187413391
 30
0.0
 11
785.3236279712
 21
305.1187413391
 31
0.0
  0
LINE
  5
9C
330
1F
100
AcDbEntity
  8
0
  6
Continuous
 62
     7
370
    25
100
AcDbLine
 10
790.6569613045
 20
-72.3812586609
 30
0.0
 11
826.6569613045
 21
-72.3812586609
 31
0.0
  0
LINE
  5
9D
330
1F
100
AcDbEntity
  8
0
  6
Continuous
 62
     7
370
    25
100
AcDbLine
 10
826.6569613045
 20
282.6187413391
 30
0.0
 11
790.6569613045
 21
282.6187413391
 31
0.0
  0
LINE
  5
9E
330
1F
100
AcDbEntity
  8
0
  6
Continuous
 62
     7
370
    25
100
AcDbLine
 10
826.6569613045
 20
-72.3812586609
 30
0.0
 11
831.3977020453
 21
-52.3812586609
 31
0.0
  0
LINE
  5
9F
330
1F
100
AcDbEntity
  8
0
  6
Continuous
 62
     7
370
    25
100
AcDbLine
 10
831.3977020453
 20
262.6187413391
 30
0.0
 11
826.6569613045
 21
282.6187413391
 31
0.0
  0
LINE
  5
A0
330
1F
100
AcDbEntity
  8
0
  6
Continuous
 62
     7
370
    25
100
AcDbLine
 10
831.3977020453
 20
-52.3812586609
 30
0.0
 11
867.3977020453
 21
-52.3812586609
 31
0.0
  0
LINE
  5
A1
330
1F
100
AcDbEntity
  8
0
  6
Continuous
 62
     7
370
    25
100
AcDbLine
 10
867.3977020453
 20
262.6187413391
 30
0.0
 11
831.3977020453
 21
262.6187413391
 31
0.0
  0
LINE
  5
A2
330
1F
100
AcDbEntity
  8
0
  6
Continuous
 62
     7
370
    25
100
AcDbLine
 10
743.3977020453
 20
105.1187413391
 30
0.0
 11
743.3977020453
 21
330.1187413391
 31
0.0
  0
LINE
  5
A3
330
1F
100
AcDbEntity
  8
0
  6
Continuous
 62
     7
370
    25
100
AcDbLine
 10
743.3977020453
 20
-119.8812586609
 30
0.0
 11
743.3977020453
 21
105.1187413391
 31
0.0
  0
LINE
  5
A4
330
1F
100
AcDbEntity
  8
0
  6
Continuous
 62
     7
370
    25
100
AcDbLine
 10
691.3977020453
 20
105.1187413391
 30
0.0
 11
691.3977020453
 21
330.1187413391
 31
0.0
  0
LINE
  5
A5
330
1F
100
AcDbEntity
  8
0
  6
Continuous
 62
     7
370
    25
100
AcDbLine
 10
691.3977020453
 20
-119.8812586609
 30
0.0
 11
691.3977020453
 21
105.1187413391
 31
0.0
  0
LINE
  5
A6
330
1F
100
AcDbEntity
  8
0
  6
Continuous
 62
     7
370
    25
100
AcDbLine
 10
749.3236279712
 20
105.1187413391
 30
0.0
 11
749.3236279712
 21
305.1187413391
 31
0.0
  0
LINE
  5
A7
330
1F
100
AcDbEntity
  8
0
  6
Continuous
 62
     7
370
    25
100
AcDbLine
 10
749.3236279712
 20
-94.8812586609
 30
0.0
 11
749.3236279712
 21
105.1187413391
 31
0.0
  0
LINE
  5
A8
330
1F
100
AcDbEntity
  8
0
  6
Continuous
 62
     7
370
    25
100
AcDbLine
 10
785.3236279712
 20
105.1187413391
 30
0.0
 11
785.3236279712
 21
305.1187413391
 31
0.0
  0
LINE
  5
A9
330
1F
100
AcDbEntity
  8
0
  6
Continuous
 62
     7
370
    25
100
AcDbLine
 10
785.3236279712
 20
-94.8812586609
 30
0.0
 11
785.3236279712
 21
105.1187413391
 31
0.0
  0
LINE
  5
AA
330
1F
100
AcDbEntity
  8
0
  6
Continuous
 62
     7
370
    25
100
AcDbLine
 10
790.6569613045
 20
105.1187413391
 30
0.0
 11
790.6569613045
 21
282.6187413391
 31
0.0
  0
LINE
  5
AB
330
1F
100
AcDbEntity
  8
0
  6
Continuous
 62
     7
370
    25
100
AcDbLine
 10
790.6569613045
 20
-72.3812586609
 30
0.0
 11
790.6569613045
 21
105.1187413391
 31
0.0
  0
LINE
  5
AC
330
1F
100
AcDbEntity
  8
0
  6
Continuous
 62
     7
370
    25
100
AcDbLine
 10
826.6569613045
 20
105.1187413391
 30
0.0
 11
826.6569613045
 21
282.6187413391
 31
0.0
  0
LINE
  5
AD
330
1F
100
AcDbEntity
  8
0
  6
Continuous
 62
     7
370
    25
100
AcDbLine
 10
826.6569613045
 20
-72.3812586609
 30
0.0
 11
826.6569613045
 21
105.1187413391
 31
0.0
  0
LINE
  5
AE
330
1F
100
AcDbEntity
  8
0
  6
Continuous
 62
     7
370
    25
100
AcDbLine
 10
831.3977020453
 20
105.1187413391
 30
0.0
 11
831.3977020453
 21
262.6187413391
 31
0.0
  0
LINE
  5
AF
330
1F
100
AcDbEntity
  8
0
  6
Continuous
 62
     7
370
    25
100
AcDbLine
 10
831.3977020453
 20
-52.3812586609
 30
0.0
 11
831.3977020453
 21
105.1187413391
 31
0.0
  0
LINE
  5
B0
330
1F
100
AcDbEntity
  8
0
  6
Continuous
 62
     7
370
    25
100
AcDbLine
 10
867.3977020453
 20
105.1187413391
 30
0.0
 11
867.3977020453
 21
262.6187413391
 31
0.0
  0
LINE
  5
B1
330
1F
100
AcDbEntity
  8
0
  6
Continuous
 62
     7
370
    25
100
AcDbLine
 10
867.3977020453
 20
-52.3812586609
 30
0.0
 11
867.3977020453
 21
105.1187413391
 31
0.0
  0
LINE
  5
B2
330
1F
100
AcDbEntity
  8
0
  6
Continuous
 62
     7
370
    25
100
AcDbLine
 10
-367.4031934039
 20
330.1187413391
 30
0.0
 11
-419.4031934039
 21
330.1187413391
 31
0.0
  0
LINE
  5
B3
330
1F
100
AcDbEntity
  8
0
  6
Continuous
 62
     7
370
    25
100
AcDbLine
 10
-419.4031934039
 20
-119.8812586609
 30
0.0
 11
-367.4031934039
 21
-119.8812586609
 31
0.0
  0
LINE
  5
B4
330
1F
100
AcDbEntity
  8
0
  6
Continuous
 62
     7
370
    25
100
AcDbLine
 10
-419.4031934039
 20
330.1187413391
 30
0.0
 11
-425.3291193299
 21
305.1187413391
 31
0.0
  0
LINE
  5
B5
330
1F
100
AcDbEntity
  8
0
  6
Continuous
 62
     7
370
    25
100
AcDbLine
 10
-425.3291193299
 20
-94.8812586609
 30
0.0
 11
-419.4031934039
 21
-119.8812586609
 31
0.0
  0
LINE
  5
B6
330
1F
100
AcDbEntity
  8
0
  6
Continuous
 62
     7
370
    25
100
AcDbLine
 10
-425.3291193299
 20
305.1187413391
 30
0.0
 11
-461.3291193299
 21
305.1187413391
 31
0.0
  0
LINE
  5
B7
330
1F
100
AcDbEntity
  8
0
  6
Continuous
 62
     7
370
    25
100
AcDbLine
 10
-461.3291193299
 20
-94.8812586609
 30
0.0
 11
-425.3291193299
 21
-94.8812586609
 31
0.0
  0
LINE
  5
B8
330
1F
100
AcDbEntity
  8
0
  6
Continuous
 62
     7
370
    25
100
AcDbLine
 10
-461.3291193299
 20
305.1187413391
 30
0.0
 11
-466.6624526632
 21
282.6187413391
 31
0.0
  0
LINE
  5
B9
330
1F
100
AcDbEntity
  8
0
  6
Continuous
 62
     7
370
    25
100
AcDbLine
 10
-466.6624526632
 20
-72.3812586609
 30
0.0
 11
-461.3291193299
 21
-94.8812586609
 31
0.0
  0
LINE
  5
BA
330
1F
100
AcDbEntity
  8
0
  6
Continuous
 62
     7
370
    25
100
AcDbLine
 10
-466.6624526632
 20
282.6187413391
 30
0.0
 11
-502.6624526632
 21
282.6187413391
 31
0.0
  0
LINE
  5
BB
330
1F
100
AcDbEntity
  8
0
  6
Continuous
 62
     7
370
    25
100
AcDbLine
 10
-502.6624526632
 20
-72.3812586609
 30
0.0
 11
-466.6624526632
 21
-72.3812586609
 31
0.0
  0
LINE
  5
BC
330
1F
100
AcDbEntity
  8
0
  6
Continuous
 62
     7
370
    25
100
AcDbLine
 10
-502.6624526632
 20
282.6187413391
 30
0.0
 11
-507.4031934039
 21
262.6187413391
 31
0.0
  0
LINE
  5
BD
330
1F
100
AcDbEntity
  8
0
  6
Continuous
 62
     7
370
    25
100
AcDbLine
 10
-507.4031934039
 20
-52.3812586609
 30
0.0
 11
-502.6624526632
 21
-72.3812586609
 31
0.0
  0
LINE
  5
BE
330
1F
100
AcDbEntity
  8
0
  6
Continuous
 62
     7
370
    25
100
AcDbLine
 10
-507.4031934039
 20
262.6187413391
 30
0.0
 11
-543.4031934039
 21
262.6187413391
 31
0.0
  0
LINE
  5
BF
330
1F
100
AcDbEntity
  8
0
  6
Continuous
 62
     7
370
    25
100
AcDbLine
 10
-543.4031934039
 20
-52.3812586609
 30
0.0
 11
-507.4031934039
 21
-52.3812586609
 31
0.0
  0
LINE
  5
C0
330
1F
100
AcDbEntity
  8
0
  6
Continuous
 62
     7
370
    25
100
AcDbLine
 10
-419.4031934039
 20
330.1187413391
 30
0.0
 11
-419.4031934039
 21
-119.8812586609
 31
0.0
  0
LINE
  5
C1
330
1F
100
AcDbEntity
  8
0
  6
Continuous
 62
     7
370
    25
100
AcDbLine
 10
-367.4031934039
 20
330.1187413391
 30
0.0
 11
-367.4031934039
 21
-119.8812586609
 31
0.0
  0
LINE
  5
C2
330
1F
100
AcDbEntity
  8
0
  6
Continuous
 62
     7
370
    25
100
AcDbLine
 10
-425.3291193299
 20
305.1187413391
 30
0.0
 11
-425.3291193299
 21
-94.8812586609
 31
0.0
  0
LINE
  5
C3
330
1F
100
AcDbEntity
  8
0
  6
Continuous
 62
     7
370
    25
100
AcDbLine
 10
-461.3291193299
 20
305.1187413391
 30
0.0
 11
-461.3291193299
 21
-94.8812586609
 31
0.0
  0
LINE
  5
C4
330
1F
100
AcDbEntity
  8
0
  6
Continuous
 62
     7
370
    25
100
AcDbLine
 10
-466.6624526632
 20
282.6187413391
 30
0.0
 11
-466.6624526632
 21
-72.3812586609
 31
0.0
  0
LINE
  5
C5
330
1F
100
AcDbEntity
  8
0
  6
Continuous
 62
     7
370
    25
100
AcDbLine
 10
-502.6624526632
 20
282.6187413391
 30
0.0
 11
-502.6624526632
 21
-72.3812586609
 31
0.0
  0
LINE
  5
C6
330
1F
100
AcDbEntity
  8
0
  6
Continuous
 62
     7
370
    25
100
AcDbLine
 10
-507.4031934039
 20
262.6187413391
 30
0.0
 11
-507.4031934039
 21
-52.3812586609
 31
0.0
  0
LINE
  5
C7
330
1F
100
AcDbEntity
  8
0
  6
Continuous
 62
     7
370
    25
100
AcDbLine
 10
-543.4031934039
 20
262.6187413391
 30
0.0
 11
-543.4031934039
 21
-52.3812586609
 31
0.0
  0
LINE
  5
C8
330
1F
100
AcDbEntity
  8
0
  6
Continuous
 62
     7
370
    25
100
AcDbLine
 10
369.4702949572
 20
568.9334243482
 30
0.0
 11
369.4702949572
 21
620.9334243482
 31
0.0
  0
LINE
  5
C9
330
1F
100
AcDbEntity
  8
0
  6
Continuous
 62
     7
370
    25
100
AcDbLine
 10
-80.5297050428
 20
620.9334243482
 30
0.0
 11
-80.5297050428
 21
568.9334243482
 31
0.0
  0
LINE
  5
CA
330
1F
100
AcDbEntity
  8
0
  6
Continuous
 62
     7
370
    25
100
AcDbLine
 10
369.4702949572
 20
620.9334243482
 30
0.0
 11
344.4702949572
 21
626.8593502742
 31
0.0
  0
LINE
  5
CB
330
1F
100
AcDbEntity
  8
0
  6
Continuous
 62
     7
370
    25
100
AcDbLine
 10
-55.5297050428
 20
626.8593502742
 30
0.0
 11
-80.5297050428
 21
620.9334243482
 31
0.0
  0
LINE
  5
CC
330
1F
100
AcDbEntity
  8
0
  6
Continuous
 62
     7
370
    25
100
AcDbLine
 10
344.4702949572
 20
626.8593502742
 30
0.0
 11
344.4702949572
 21
662.8593502742
 31
0.0
  0
LINE
  5
CD
330
1F
100
AcDbEntity
  8
0
  6
Continuous
 62
     7
370
    25
100
AcDbLine
 10
-55.5297050428
 20
662.8593502742
 30
0.0
 11
-55.5297050428
 21
626.8593502742
 31
0.0
  0
LINE
  5
CE
330
1F
100
AcDbEntity
  8
0
  6
Continuous
 62
     7
370
    25
100
AcDbLine
 10
344.4702949572
 20
662.8593502742
 30
0.0
 11
321.9702949572
 21
668.1926836075
 31
0.0
  0
LINE
  5
CF
330
1F
100
AcDbEntity
  8
0
  6
Continuous
 62
     7
370
    25
100
AcDbLine
 10
-33.0297050428
 20
668.1926836075
 30
0.0
 11
-55.5297050428
 21
662.8593502742
 31
0.0
  0
LINE
  5
D0
330
1F
100
AcDbEntity
  8
0
  6
Continuous
 62
     7
370
    25
100
AcDbLine
 10
321.9702949572
 20
668.1926836075
 30
0.0
 11
321.9702949572
 21
704.1926836075
 31
0.0
  0
LINE
  5
D1
330
1F
100
AcDbEntity
  8
0
  6
Continuous
 62
     7
370
    25
100
AcDbLine
 10
-33.0297050428
 20
704.1926836075
 30
0.0
 11
-33.0297050428
 21
668.1926836075
 31
0.0
  0
LINE
  5
D2
330
1F
100
AcDbEntity
  8
0
  6
Continuous
 62
     7
370
    25
100
AcDbLine
 10
321.9702949572
 20
704.1926836075
 30
0.0
 11
301.9702949572
 21
708.9334243482
 31
0.0
  0
LINE
  5
D3
330
1F
100
AcDbEntity
  8
0
  6
Continuous
 62
     7
370
    25
100
AcDbLine
 10
-13.0297050428
 20
708.9334243482
 30
0.0
 11
-33.0297050428
 21
704.1926836075
 31
0.0
  0
LINE
  5
D4
330
1F
100
AcDbEntity
  8
0
  6
Continuous
 62
     7
370
    25
100
AcDbLine
 10
301.9702949572
 20
708.9334243482
 30
0.0
 11
301.9702949572
 21
744.9334243482
 31
0.0
  0
LINE
  5
D5
330
1F
100
AcDbEntity
  8
0
  6
Continuous
 62
     7
370
    25
100
AcDbLine
 10
-13.0297050428
 20
744.9334243482
 30
0.0
 11
-13.0297050428
 21
708.9334243482
 31
0.0
  0
LINE
  5
D6
330
1F
100
AcDbEntity
  8
0
  6
Continuous
 62
     7
370
    25
100
AcDbLine
 10
369.4702949572
 20
620.9334243482
 30
0.0
 11
-80.5297050428
 21
620.9334243482
 31
0.0
  0
LINE
  5
D7
330
1F
100
AcDbEntity
  8
0
  6
Continuous
 62
     7
370
    25
100
AcDbLine
 10
369.4702949572
 20
568.9334243482
 30
0.0
 11
-80.5297050428
 21
568.9334243482
 31
0.0
  0
LINE
  5
D8
330
1F
100
AcDbEntity
  8
0
  6
Continuous
 62
     7
370
    25
100
AcDbLine
 10
344.4702949572
 20
626.8593502742
 30
0.0
 11
-55.5297050428
 21
626.8593502742
 31
0.0
  0
LINE
  5
D9
330
1F
100
AcDbEntity
  8
0
  6
Continuous
 62
     7
370
    25
100
AcDbLine
 10
344.4702949572
 20
662.8593502742
 30
0.0
 11
-55.5297050428
 21
662.8593502742
 31
0.0
  0
LINE
  5
DA
330
1F
100
AcDbEntity
  8
0
  6
Continuous
 62
     7
370
    25
100
AcDbLine
 10
321.9702949572
 20
668.1926836075
 30
0.0
 11
-33.0297050428
 21
668.1926836075
 31
0.0
  0
LINE
  5
DB
330
1F
100
AcDbEntity
  8
0
  6
Continuous
 62
     7
370
    25
100
AcDbLine
 10
321.9702949572
 20
704.1926836075
 30
0.0
 11
-33.0297050428
 21
704.1926836075
 31
0.0
  0
LINE
  5
DC
330
1F
100
AcDbEntity
  8
0
  6
Continuous
 62
     7
370
    25
100
AcDbLine
 10
301.9702949572
 20
708.9334243482
 30
0.0
 11
-13.0297050428
 21
708.9334243482
 31
0.0
  0
LINE
  5
DD
330
1F
100
AcDbEntity
  8
0
  6
Continuous
 62
     7
370
    25
100
AcDbLine
 10
301.9702949572
 20
744.9334243482
 30
0.0
 11
-13.0297050428
 21
744.9334243482
 31
0.0
  0
LINE
  5
DE
330
1F
100
AcDbEntity
  8
0
  6
Continuous
 62
     7
370
    25
100
AcDbLine
 10
853.0502028101
 20
-229.5094670803
 30
0.0
 11
816.2806501884
 21
-208.2828561729
 31
0.0
  0
LINE
  5
DF
330
1F
100
AcDbEntity
  8
0
  6
Continuous
 62
     7
370
    25
100
AcDbLine
 10
591.2989353453
 20
-598.0048442442
 30
0.0
 11
628.068487967
 21
-619.2314551516
 31
0.0
  0
LINE
  5
E0
330
1F
100
AcDbEntity
  8
0
  6
Continuous
 62
     7
370
    25
100
AcDbLine
 10
799.5914036234
 20
-227.5150907344
 30
0.0
 11
774.1355595007
 21
-212.8197447216
 31
0.0
  0
LINE
  5
E1
330
1F
100
AcDbEntity
  8
0
  6
Continuous
 62
     7
370
    25
100
AcDbLine
 10
574.1518129735
 20
-559.2392896739
 30
0.0
 11
599.6076570962
 21
-573.9346356867
 31
0.0
  0
LINE
  5
E2
330
1F
100
AcDbEntity
  8
0
  6
Continuous
 62
     7
370
    25
100
AcDbLine
 10
720.3079962175
 20
-230.8191974634
 30
0.0
 11
694.8521520948
 21
-216.1238514506
 31
0.0
  0
LINE
  5
E3
330
1F
100
AcDbEntity
  8
0
  6
Continuous
 62
     7
370
    25
100
AcDbLine
 10
537.3649517046
 20
-488.9292431005
 30
0.0
 11
562.8207958273
 21
-503.6245891133
 31
0.0
  0
LINE
  5
E4
330
1F
100
AcDbEntity
  8
0
  6
Continuous
 62
     7
370
    25
100
AcDbLine
 10
759.1152375922
 20
-230.128755827
 30
0.0
 11
733.6593934695
 21
-215.4334098141
 31
0.0
  0
LINE
  5
E5
330
1F
100
AcDbEntity
  8
0
  6
Continuous
 62
     7
370
    25
100
AcDbLine
 10
556.1738184266
 20
-522.8807559593
 30
0.0
 11
581.6296625493
 21
-537.5761019721
 31
0.0
  0
LWPOLYLINE
  5
E6
330
1F
100
AcDbEntity
  8
0
  6
Continuous
 62
     7
370
    25
100
AcDbPolyline
 90
       77
 70
   128
 43
0.0
 10
799.5914036234
 20
-227.5150907344
 10
802.6912623042
 20
-229.4191432116
 10
806.654797795
 20
-232.2142547092
 10
810.4305219691
 20
-235.3049910743
 10
814.0118109233
 20
-238.6859301052
 10
817.3923818599
 20
-242.351140486
 10
820.5663041086
 20
-246.2941921922
 10
823.5280095314
 20
-250.5081677713
 10
826.2723022906
 20
-254.9856744782
 10
828.7943679641
 20
-259.7188572445
 10
831.0897819917
 20
-264.6994124596
 10
833.1545174373
 20
-269.918602537
 10
834.9849520532
 20
-275.3672712438
 10
836.5778746352
 20
-281.0358597638
 10
837.9304906558
 20
-286.9144234664
 10
839.0404271669
 20
-292.9926493534
 10
839.9057369627
 20
-299.2598741512
 10
840.5249019957
 20
-305.7051030178
 10
840.89683604
 20
-312.3170288317
 10
841.0208865971
 20
-319.0840520283
 10
840.89683604
 20
-325.9943009494
 10
840.5249019957
 20
-333.0356526703
 10
839.9057369627
 20
-340.1957542675
 10
839.0404271669
 20
-347.4620444897
 10
837.9304906558
 20
-354.8217757948
 10
836.5778746352
 20
-362.2620367132
 10
834.9849520532
 20
-369.769774499
 10
833.1545174373
 20
-377.331818029
 10
831.0897819917
 20
-384.9349009093
 10
828.7943679641
 20
-392.5656847489
 10
826.2723022906
 20
-400.21078256
 10
823.5280095314
 20
-407.8567822433
 10
820.5663041086
 20
-415.4902701172
 10
817.3923818599
 20
-423.09785445
 10
814.0118109233
 20
-430.6661889538
 10
810.4305219691
 20
-438.1819961981
 10
806.654797795
 20
-445.6320909031
 10
802.6912623042
 20
-453.0034030712
 10
798.5468688847
 20
-460.283000916
 10
794.228888211
 20
-467.4581135493
 10
789.7448954883
 20
-474.5161533854
 10
785.1027571635
 20
-481.444738224
 10
780.3106171248
 20
-488.2317129731
 10
775.376882414
 20
-494.8651709727
 10
770.3102084785
 20
-501.3334748834
 10
765.1194839858
 20
-507.6252771021
 10
759.8138152307
 20
-513.7295396699
 10
754.402510159
 20
-519.6355536359
 10
748.8950620385
 20
-525.3329578448
 10
743.3011328047
 20
-530.8117571136
 10
737.6305361103
 20
-536.0623397667
 10
731.8932201088
 20
-541.0754944979
 10
726.099250002
 20
-545.8424265304
 10
720.2587903823
 20
-550.3547730455
 10
714.3820874005
 20
-554.6046178542
 10
708.4794507905
 20
-558.5845052845
 10
702.5612357826
 20
-562.2874532616
 10
696.637824937
 20
-565.7069655564
 10
690.7196099291
 20
-568.8370431824
 10
684.8169733191
 20
-571.6721949198
 10
678.9402703372
 20
-574.2074469491
 10
673.0998107176
 20
-576.4383515767
 10
667.3058406108
 20
-578.3609950379
 10
661.5685246093
 20
-579.9720043627
 10
655.8979279149
 20
-581.2685532934
 10
650.3039986811
 20
-582.2483672425
 10
644.7965505606
 20
-582.9097272834
 10
639.3852454889
 20
-583.2514731659
 10
634.0795767338
 20
-583.2730053515
 10
628.8888522411
 20
-582.9742860656
 10
623.8221783056
 20
-582.3558393633
 10
618.8884435948
 20
-581.4187502101
 10
614.0963035561
 20
-580.1646625789
 10
609.4541652313
 20
-578.5957765656
 10
604.9701725086
 20
-576.7148445293
 10
600.6521918349
 20
-574.525166264
 10
599.6076570962
 20
-573.9346356867
  0
LWPOLYLINE
  5
E7
330
1F
100
AcDbEntity
  8
0
  6
Continuous
 62
     7
370
    25
100
AcDbPolyline
 90
      110
 70
   128
 43
0.0
 10
739.5522619918
 20
-203.4785065424
 10
742.6858862857
 20
-202.542960284
 10
748.7502506012
 20
-200.9556244037
 10
754.7444144989
 20
-199.6839814368
 10
760.6590188035
 20
-198.7300169029
 10
766.4848285624
 20
-198.0952203043
 10
772.2127474653
 20
-197.7805828005
 10
777.8338320467
 20
-197.7865956607
 10
783.3393056503
 20
-198.1132494965
 10
788.7205721327
 20
-198.7600342768
 10
793.9692292849
 20
-199.7259401238
 10
799.077081952
 20
-201.0094588902
 10
804.0361548283
 20
-202.6085865139
 10
808.8387049102
 20
-204.5208261468
 10
813.4772335858
 20
-206.7431920539
 10
817.9444983433
 20
-209.2722142745
 10
822.233524079
 20
-212.1039440407
 10
826.3376139884
 20
-215.2339599425
 10
830.2503600222
 20
-218.6573748318
 10
833.9656528921
 20
-222.3688434525
 10
837.4776916092
 20
-226.362570787
 10
840.7809925419
 20
-230.632321104
 10
843.870397978
 20
-235.1714276955
 10
846.7410841777
 20
-239.9728032851
 10
849.3885689051
 20
-245.028951095
 10
851.8087184272
 20
-250.3319765504
 10
853.9977539678
 20
-255.8735996067
 10
855.9522576078
 20
-261.6451676773
 10
857.6691776217
 20
-267.6376691438
 10
859.1458332427
 20
-273.8417474264
 10
860.3799188484
 20
-280.2477155935
 10
861.3695075605
 20
-286.8455714861
 10
862.1130542539
 20
-293.6250133355
 10
862.6093979685
 20
-300.575455848
 10
862.8577637227
 20
-307.6860467327
 10
862.8577637227
 20
-314.945683646
 10
862.6093979685
 20
-322.3430315266
 10
862.1130542539
 20
-329.866540294
 10
861.3695075605
 20
-337.5044628823
 10
860.3799188484
 20
-345.244873582
 10
859.1458332427
 20
-353.0756866607
 10
857.6691776217
 20
-360.9846752333
 10
855.9522576078
 20
-368.959490353
 10
853.9977539678
 20
-376.9876802928
 10
851.8087184272
 20
-385.0567099869
 10
849.3885689051
 20
-393.1539806034
 10
846.7410841777
 20
-401.2668492155
 10
843.870397978
 20
-409.3826485417
 10
840.7809925419
 20
-417.488706725
 10
837.4776916092
 20
-425.5723671176
 10
833.9656528921
 20
-433.6210080436
 10
830.2503600222
 20
-441.6220625054
 10
826.3376139884
 20
-449.5630378064
 10
822.233524079
 20
-457.4315350562
 10
817.9444983433
 20
-465.2152685304
 10
813.4772335858
 20
-472.9020848533
 10
808.8387049102
 20
-480.4799819736
 10
804.0361548283
 20
-487.9371279045
 10
799.077081952
 20
-495.2618791978
 10
793.9692292849
 20
-502.4427991239
 10
788.7205721327
 20
-509.4686755288
 10
783.3393056503
 20
-516.3285383405
 10
777.8338320467
 20
-523.0116766974
 10
772.2127474653
 20
-529.5076556725
 10
766.4848285624
 20
-535.8063325656
 10
760.6590188035
 20
-541.8978727406
 10
754.7444144989
 20
-547.7727649804
 10
748.7502506012
 20
-553.4218363383
 10
742.6858862857
 20
-558.8362664599
 10
736.5607903374
 20
-564.0076013554
 10
730.3845263665
 20
-568.9277665991
 10
724.1667378761
 20
-573.5890799371
 10
717.9171332048
 20
-577.984263282
 10
711.6454703684
 20
-582.1064540766
 10
705.361541824
 20
-585.9492160094
 10
699.07515918
 20
-589.5065490639
 10
692.7961378767
 20
-592.7728988867
 10
686.5342818605
 20
-595.7431654602
 10
680.2993682762
 20
-598.412711066
 10
674.1011322013
 20
-600.7773675253
 10
667.9492514455
 20
-602.8334427078
 10
661.8533314406
 20
-604.5777262962
 10
655.8228902418
 20
-606.0074947988
 10
649.8673436673
 20
-607.1205158017
 10
643.9959905961
 20
-607.9150514547
 10
638.217998449
 20
-608.3898611848
 10
632.542388875
 20
-608.544203633
 10
626.9780236645
 20
-608.3778378117
 10
621.5335909133
 20
-607.8910234816
 10
616.217591457
 20
-607.0845207453
 10
611.0383255976
 20
-605.9595888612
 10
606.0038801439
 20
-604.5179842769
 10
601.1221157848
 20
-602.7619578868
 10
596.400654816
 20
-600.6942515176
 10
591.8468692383
 20
-598.3180936475
 10
587.4678692472
 20
-595.6371943647
 10
583.2704921314
 20
-592.6557395755
 10
579.2612915971
 20
-589.3783844673
 10
575.4465275349
 20
-585.8102462414
 10
571.8321562461
 20
-581.9568961218
 10
568.4238211425
 20
-577.8243506574
 10
565.2268439346
 20
-573.4190623274
 10
562.2462163229
 20
-568.7479094665
 10
559.4865922036
 20
-563.8181855255
 10
556.9522804021
 20
-558.6375876831
 10
554.6472379456
 20
-553.2142048278
 10
552.5750638841
 20
-547.5565049282
 10
550.7389936715
 20
-541.6733218111
 10
549.1418941135
 20
-535.5738413685
 10
548.768042592
 20
-533.9622764301
  0
LWPOLYLINE
  5
E8
330
1F
100
AcDbEntity
  8
0
  6
Continuous
 62
     7
370
    25
100
AcDbPolyline
 90
       82
 70
   128
 43
0.0
 10
853.0502028101
 20
-229.5094670803
 10
854.714050965
 20
-230.4988251819
 10
859.0030767007
 20
-233.3305549481
 10
863.1071666101
 20
-236.4605708499
 10
867.0199126439
 20
-239.8839857392
 10
870.7352055138
 20
-243.5954543599
 10
874.2472442309
 20
-247.5891816944
 10
877.5505451636
 20
-251.8589320114
 10
880.6399505997
 20
-256.3980386029
 10
883.5106367994
 20
-261.1994141925
 10
886.1581215268
 20
-266.2555620024
 10
888.5782710489
 20
-271.5585874578
 10
890.7673065895
 20
-277.1002105141
 10
892.7218102295
 20
-282.8717785847
 10
894.4387302434
 20
-288.8642800512
 10
895.9153858644
 20
-295.0683583338
 10
897.1494714701
 20
-301.4743265009
 10
898.1390601822
 20
-308.0721823935
 10
898.8826068756
 20
-314.8516242429
 10
899.3789505902
 20
-321.8020667554
 10
899.6273163444
 20
-328.9126576401
 10
899.6273163444
 20
-336.1722945534
 10
899.3789505902
 20
-343.569642434
 10
898.8826068756
 20
-351.0931512014
 10
898.1390601822
 20
-358.7310737896
 10
897.1494714701
 20
-366.4714844894
 10
895.9153858644
 20
-374.302297568
 10
894.4387302434
 20
-382.2112861407
 10
892.7218102295
 20
-390.1861012604
 10
890.7673065895
 20
-398.2142912002
 10
888.5782710489
 20
-406.2833208943
 10
886.1581215268
 20
-414.3805915108
 10
883.5106367994
 20
-422.4934601228
 10
880.6399505997
 20
-430.6092594491
 10
877.5505451636
 20
-438.7153176324
 10
874.2472442309
 20
-446.798978025
 10
870.7352055138
 20
-454.847618951
 10
867.0199126439
 20
-462.8486734128
 10
863.1071666101
 20
-470.7896487137
 10
859.0030767007
 20
-478.6581459636
 10
854.714050965
 20
-486.4418794378
 10
850.2467862075
 20
-494.1286957607
 10
845.6082575319
 20
-501.706592881
 10
840.80570745
 20
-509.1637388118
 10
835.8466345737
 20
-516.4884901052
 10
830.7387819066
 20
-523.6694100313
 10
825.4901247544
 20
-530.6952864362
 10
820.108858272
 20
-537.5551492478
 10
814.6033846684
 20
-544.2382876048
 10
808.982300087
 20
-550.7342665799
 10
803.2543811841
 20
-557.032943473
 10
797.4285714252
 20
-563.124483648
 10
791.5139671206
 20
-568.9993758878
 10
785.5198032229
 20
-574.6484472457
 10
779.4554389074
 20
-580.0628773673
 10
773.3303429591
 20
-585.2342122628
 10
767.1540789882
 20
-590.1543775065
 10
760.9362904978
 20
-594.8156908445
 10
754.6866858265
 20
-599.2108741893
 10
748.4150229901
 20
-603.333064984
 10
742.1310944457
 20
-607.1758269168
 10
735.8447118017
 20
-610.7331599713
 10
729.5656904984
 20
-613.999509794
 10
723.3038344822
 20
-616.9697763676
 10
717.0689208979
 20
-619.6393219734
 10
710.870684823
 20
-622.0039784327
 10
704.7188040672
 20
-624.0600536152
 10
698.6228840623
 20
-625.8043372036
 10
692.5924428635
 20
-627.2341057062
 10
686.636896289
 20
-628.3471267091
 10
680.7655432178
 20
-629.1416623621
 10
674.9875510707
 20
-629.6164720922
 10
669.3119414967
 20
-629.7708145404
 10
663.7475762862
 20
-629.6044487191
 10
658.303143535
 20
-629.117634389
 10
652.9871440787
 20
-628.3111316527
 10
647.8078782193
 20
-627.1861997686
 10
642.7734327656
 20
-625.7445951843
 10
637.8916684065
 20
-623.9885687942
 10
633.1702074377
 20
-621.920862425
 10
628.61642186
 20
-619.5447045548
 10
628.068487967
 20
-619.2314551516
  0
LWPOLYLINE
  5
E9
330
1F
100
AcDbEntity
  8
0
  6
Continuous
 62
     7
370
    25
100
AcDbPolyline
 90
       73
 70
   128
 43
0.0
 10
759.1152375922
 20
-230.128755827
 10
759.6154259162
 20
-230.4207814054
 10
763.4582839611
 20
-232.894269129
 10
767.1163286992
 20
-235.6674703055
 10
770.5822974214
 20
-238.7348790007
 10
773.8493087675
 20
-242.0904051584
 10
776.9108763889
 20
-245.7273866921
 10
779.7609218266
 20
-249.6386027117
 10
782.393786579
 20
-253.8162878598
 10
784.804243337
 20
-258.2521477292
 10
786.9875063618
 20
-262.9373753307
 10
788.9392409867
 20
-267.8626685786
 10
790.6555722233
 20
-273.0182487592
 10
792.1330924549
 20
-278.3938799451
 10
793.3688682016
 20
-283.9788893183
 10
794.3604459453
 20
-289.7621883596
 10
795.105857
 20
-295.732294864
 10
795.6036214212
 20
-301.8773557378
 10
795.8527509435
 20
-308.1851705314
 10
795.8527509435
 20
-314.6432156624
 10
795.6036214212
 20
-321.2386692799
 10
795.105857
 20
-327.9584367214
 10
794.3604459453
 20
-334.7891765105
 10
793.3688682016
 20
-341.7173268458
 10
792.1330924549
 20
-348.729132526
 10
790.6555722233
 20
-355.8106722599
 10
788.9392409867
 20
-362.947886306
 10
786.9875063618
 20
-370.1266043864
 10
784.804243337
 20
-377.3325738208
 10
782.393786579
 20
-384.551487824
 10
779.7609218266
 20
-391.7690139104
 10
776.9108763889
 20
-398.9708223501
 10
773.8493087675
 20
-406.142614619
 10
770.5822974214
 20
-413.2701517874
 10
767.1163286992
 20
-420.3392827901
 10
763.4582839611
 20
-427.3359725217
 10
759.6154259162
 20
-434.2463297026
 10
755.5953842035
 20
-441.056634458
 10
751.4061402437
 20
-447.7533655584
 10
747.0560113929
 20
-454.323227264
 10
742.5536344292
 20
-460.7531757226
 10
737.9079484054
 20
-467.0304448665
 10
733.1281769011
 20
-473.1425717592
 10
728.22380971
 20
-479.0774213382
 10
723.2045839994
 20
-484.8232105092
 10
718.0804649773
 20
-490.3685315397
 10
712.8616261076
 20
-495.7023747079
 10
707.5584289119
 20
-500.814150162
 10
702.1814023972
 20
-505.6937089451
 10
696.7412221522
 20
-510.3313631448
 10
691.2486891509
 20
-514.7179051281
 10
685.7147083094
 20
-518.8446258217
 10
680.1502668343
 20
-522.7033320038
 10
674.566412409
 20
-526.2863625705
 10
668.9742312598
 20
-529.5866037462
 10
663.3848261446
 20
-532.5975032075
 10
657.8092943099
 20
-535.3130830923
 10
652.258705458
 20
-537.727951868
 10
646.7440797694
 20
-539.8373150363
 10
641.2763660229
 20
-541.6369846518
 10
635.8664198579
 20
-543.1233876371
 10
630.524982222
 20
-544.2935728766
 10
625.262658045
 20
-545.145217076
 10
620.0898951845
 20
-545.6766293743
 10
615.0169636824
 20
-545.8867547018
 10
610.0539353745
 20
-545.775175874
 10
605.2106638942
 20
-545.3421144204
 10
600.4967651087
 20
-544.5884301443
 10
595.9215980277
 20
-543.5156194163
 10
591.494246222
 20
-542.1258122025
 10
587.2234997886
 20
-540.4217678368
 10
583.1178378995
 20
-538.4068695413
 10
581.6296625493
 20
-537.5761019721
  0
LWPOLYLINE
  5
EA
330
1F
100
AcDbEntity
  8
0
  6
Continuous
 62
     7
370
    25
100
AcDbPolyline
 90
      103
 70
   128
 43
0.0
 10
709.2426001514
 20
-207.5687374408
 10
712.1746919876
 20
-206.7823760455
 10
717.845288682
 20
-205.4858271149
 10
723.4392179158
 20
-204.5060131658
 10
728.9466660362
 20
-203.8446531249
 10
734.357971108
 20
-203.5029072424
 10
739.6636398631
 20
-203.4813750567
 10
744.8543643557
 20
-203.7800943426
 10
749.9210382913
 20
-204.398541045
 10
754.8547730021
 20
-205.3356301982
 10
759.6469130408
 20
-206.5897178293
 10
764.2890513655
 20
-208.1586038426
 10
768.7730440882
 20
-210.0395358789
 10
773.091024762
 20
-212.2292141442
 10
777.2354181815
 20
-214.7237971988
 10
781.1989536723
 20
-217.5189086963
 10
784.9746778464
 20
-220.6096450615
 10
788.5559668006
 20
-223.9905840924
 10
791.9365377372
 20
-227.6557944732
 10
795.1104599859
 20
-231.5988461794
 10
798.0721654087
 20
-235.8128217585
 10
800.8164581679
 20
-240.2903284653
 10
803.3385238413
 20
-245.0235112317
 10
805.633937869
 20
-250.0040664468
 10
807.6986733145
 20
-255.2232565241
 10
809.5291079305
 20
-260.671925231
 10
811.1220305125
 20
-266.340513751
 10
812.4746465331
 20
-272.2190774536
 10
813.5845830442
 20
-278.2973033406
 10
814.44989284
 20
-284.5645281384
 10
815.0690578729
 20
-291.009757005
 10
815.4409919173
 20
-297.6216828189
 10
815.5650424744
 20
-304.3887060154
 10
815.4409919173
 20
-311.2989549366
 10
815.0690578729
 20
-318.3403066575
 10
814.44989284
 20
-325.5004082547
 10
813.5845830442
 20
-332.7666984769
 10
812.4746465331
 20
-340.126429782
 10
811.1220305125
 20
-347.5666907004
 10
809.5291079305
 20
-355.0744284862
 10
807.6986733145
 20
-362.6364720162
 10
805.633937869
 20
-370.2395548964
 10
803.3385238413
 20
-377.8703387361
 10
800.8164581679
 20
-385.5154365472
 10
798.0721654087
 20
-393.1614362305
 10
795.1104599859
 20
-400.7949241043
 10
791.9365377372
 20
-408.4025084372
 10
788.5559668006
 20
-415.970842941
 10
784.9746778464
 20
-423.4866501853
 10
781.1989536723
 20
-430.9367448903
 10
777.2354181815
 20
-438.3080570584
 10
773.091024762
 20
-445.5876549032
 10
768.7730440882
 20
-452.7627675365
 10
764.2890513655
 20
-459.8208073726
 10
759.6469130408
 20
-466.7493922112
 10
754.854773002
 20
-473.5363669603
 10
749.9210382913
 20
-480.1698249599
 10
744.8543643557
 20
-486.6381288705
 10
739.6636398631
 20
-492.9299310893
 10
734.357971108
 20
-499.0341936571
 10
728.9466660362
 20
-504.9402076231
 10
723.4392179158
 20
-510.637611832
 10
717.845288682
 20
-516.1164111008
 10
712.1746919876
 20
-521.3669937539
 10
706.4373759861
 20
-526.3801484851
 10
700.6434058793
 20
-531.1470805175
 10
694.8029462596
 20
-535.6594270327
 10
688.9262432778
 20
-539.9092718413
 10
683.0236066678
 20
-543.8891592717
 10
677.1053916599
 20
-547.5921072488
 10
671.1819808143
 20
-551.0116195436
 10
665.2637658064
 20
-554.1416971695
 10
659.3611291964
 20
-556.976848907
 10
653.4844262145
 20
-559.5121009363
 10
647.6439665948
 20
-561.7430055639
 10
641.8499964881
 20
-563.6656490251
 10
636.1126804866
 20
-565.2766583499
 10
630.4420837922
 20
-566.5732072806
 10
624.8481545584
 20
-567.5530212297
 10
619.3407064379
 20
-568.2143812706
 10
613.9294013662
 20
-568.5561271531
 10
608.6237326111
 20
-568.5776593387
 10
603.4330081184
 20
-568.2789400528
 10
598.3663341829
 20
-567.6604933504
 10
593.4325994721
 20
-566.7234041973
 10
588.6404594334
 20
-565.4693165661
 10
583.9983211086
 20
-563.9004305528
 10
579.5143283859
 20
-562.0194985165
 10
575.1963477122
 20
-559.8298202512
 10
571.0519542927
 20
-557.3352371966
 10
567.0884188019
 20
-554.5401256991
 10
563.3126946278
 20
-551.4493893339
 10
559.7314056735
 20
-548.068450303
 10
556.350834737
 20
-544.4032399222
 10
553.1769124883
 20
-540.460188216
 10
550.2152070655
 20
-536.2462126369
 10
547.4709143063
 20
-531.7687059301
 10
544.9488486328
 20
-527.0355231637
 10
542.6534346052
 20
-522.0549679487
 10
540.5886991596
 20
-516.8357778713
 10
538.7582645437
 20
-511.3871091644
 10
537.1653419617
 20
-505.7185206444
 10
537.1528005253
 20
-505.6693136758
  0
LWPOLYLINE
  5
EB
330
1F
100
AcDbEntity
  8
0
  6
Continuous
 62
     7
370
    25
100
AcDbPolyline
 90
       69
 70
   128
 43
0.0
 10
720.3079962175
 20
-230.8191974634
 10
720.778058626
 20
-231.0938174938
 10
724.3865778231
 20
-233.4312818761
 10
727.8102883472
 20
-236.0672854277
 10
731.0415505614
 20
-238.9959461938
 10
734.0731542563
 20
-242.2107291872
 10
736.8983347385
 20
-245.7044609699
 10
739.5107879256
 20
-249.4693456602
 10
741.9046844132
 20
-253.4969823282
 10
744.074682482
 20
-257.7783837416
 10
746.0159400178
 20
-262.3039964197
 10
747.7241253161
 20
-267.063721951
 10
749.1954267474
 20
-272.0469395267
 10
750.426561263
 20
-277.2425296398
 10
751.4147817203
 20
-282.6388988972
 10
752.1578830132
 20
-288.224005889
 10
752.654206992
 20
-293.9853880575
 10
752.9026461638
 20
-299.9101895064
 10
752.9026461638
 20
-305.9851896868
 10
752.654206992
 20
-312.1968328978
 10
752.1578830132
 20
-318.5312585347
 10
751.4147817203
 20
-324.9743320169
 10
750.426561263
 20
-331.511676328
 10
749.1954267474
 20
-338.1287040966
 10
747.7241253161
 20
-344.8106501465
 10
746.0159400178
 20
-351.5426044431
 10
744.074682482
 20
-358.3095453641
 10
741.9046844132
 20
-365.0963732182
 10
739.5107879256
 20
-371.8879439387
 10
736.8983347385
 20
-378.6691028757
 10
734.0731542563
 20
-385.424718612
 10
731.0415505614
 20
-392.1397167273
 10
727.8102883472
 20
-398.799113435
 10
724.3865778231
 20
-405.3880490172
 10
720.778058626
 20
-411.8918209821
 10
716.9927827733
 20
-418.2959168714
 10
713.0391966956
 20
-424.5860466429
 10
708.9261223892
 20
-430.7481745576
 10
704.6627377314
 20
-436.7685504986
 10
700.2585560003
 20
-442.633740653
 10
695.7234046476
 20
-448.3306574882
 10
691.0674033691
 20
-453.8465889551
 10
686.3009415246
 20
-459.1692268537
 10
681.4346549539
 20
-464.2866942976
 10
676.4794022454
 20
-469.1875722159
 10
671.4462405055
 20
-473.8609248336
 10
666.3464006861
 20
-478.2963240737
 10
661.1912625239
 20
-482.483872826
 10
655.992329148
 20
-486.4142270319
 10
650.7612014116
 20
-490.0786165343
 10
645.5095520063
 20
-493.4688646474
 10
640.2490994153
 20
-496.5774064019
 10
634.9915817653
 20
-499.3973054257
 10
629.7487306341
 20
-501.9222694214
 10
624.5322448725
 20
-504.146664207
 10
619.3537645002
 20
-506.065526288
 10
614.2248447316
 20
-507.6745739327
 10
609.1569301923
 20
-508.9702167268
 10
604.1613293814
 20
-509.9495635844
 10
599.2491894376
 20
-510.6104291998
 10
594.4314712659
 20
-510.9513389233
 10
589.7189250794
 20
-510.9715320522
 10
585.1220664113
 20
-510.6709635276
 10
580.6511526508
 20
-510.0503040355
 10
576.3161601547
 20
-509.1109385098
 10
572.1267619865
 20
-507.8549630423
 10
568.0923063314
 20
-506.2851802055
 10
564.2217956377
 20
-504.4050927986
 10
562.8207958273
 20
-503.6245891133
  0
LWPOLYLINE
  5
EC
330
1F
100
AcDbEntity
  8
0
  6
Continuous
 62
     7
370
    25
100
AcDbPolyline
 90
       95
 70
   128
 43
0.0
 10
678.8011302462
 20
-210.0416900394
 10
682.1025847891
 20
-209.2613443305
 10
687.4057819849
 20
-208.250178633
 10
692.6246208546
 20
-207.5584786995
 10
697.7487398767
 20
-207.1876178365
 10
702.7679655873
 20
-207.1383323536
 10
707.6723327783
 20
-207.4107201028
 10
712.4521042827
 20
-208.0042402833
 10
717.0977903065
 20
-208.9177145159
 10
721.6001672701
 20
-210.1493291818
 10
725.950296121
 20
-211.6966390243
 10
730.1395400808
 20
-213.5565720028
 10
734.1595817935
 20
-215.7254353926
 10
738.0024398384
 20
-218.1989231162
 10
741.6604845765
 20
-220.9721242927
 10
745.1264532987
 20
-224.0395329878
 10
748.3934646448
 20
-227.3950591456
 10
751.4550322662
 20
-231.0320406793
 10
754.3050777038
 20
-234.9432566989
 10
756.9379424563
 20
-239.120941847
 10
759.3483992143
 20
-243.5568017163
 10
761.5316622391
 20
-248.2420293179
 10
763.483396864
 20
-253.1673225658
 10
765.1997281006
 20
-258.3229027464
 10
766.6772483321
 20
-263.6985339323
 10
767.9130240789
 20
-269.2835433055
 10
768.9046018226
 20
-275.0668423467
 10
769.6500128773
 20
-281.0369488512
 10
770.1477772984
 20
-287.182009725
 10
770.3969068208
 20
-293.4898245186
 10
770.3969068208
 20
-299.9478696496
 10
770.1477772984
 20
-306.5433232671
 10
769.6500128773
 20
-313.2630907086
 10
768.9046018226
 20
-320.0938304977
 10
767.9130240789
 20
-327.021980833
 10
766.6772483321
 20
-334.0337865131
 10
765.1997281006
 20
-341.1153262471
 10
763.483396864
 20
-348.2525402932
 10
761.5316622391
 20
-355.4312583736
 10
759.3483992143
 20
-362.637227808
 10
756.9379424563
 20
-369.8561418112
 10
754.3050777038
 20
-377.0736678976
 10
751.4550322662
 20
-384.2754763373
 10
748.3934646448
 20
-391.4472686062
 10
745.1264532987
 20
-398.5748057746
 10
741.6604845765
 20
-405.6439367773
 10
738.0024398384
 20
-412.6406265089
 10
734.1595817935
 20
-419.5509836898
 10
730.1395400808
 20
-426.3612884452
 10
725.950296121
 20
-433.0580195456
 10
721.6001672701
 20
-439.6278812512
 10
717.0977903065
 20
-446.0578297097
 10
712.4521042827
 20
-452.3350988537
 10
707.6723327783
 20
-458.4472257464
 10
702.7679655873
 20
-464.3820753254
 10
697.7487398767
 20
-470.1278644964
 10
692.6246208545
 20
-475.6731855268
 10
687.4057819849
 20
-481.0070286951
 10
682.1025847891
 20
-486.1188041492
 10
676.7255582745
 20
-490.9983629323
 10
671.2853780294
 20
-495.636017132
 10
665.7928450282
 20
-500.0225591152
 10
660.2588641867
 20
-504.1492798089
 10
654.6944227115
 20
-508.007985991
 10
649.1105682863
 20
-511.5910165577
 10
643.5183871371
 20
-514.8912577334
 10
637.9289820219
 20
-517.9021571947
 10
632.3534501871
 20
-520.6177370795
 10
626.8028613353
 20
-523.0326058552
 10
621.2882356467
 20
-525.1419690235
 10
615.8205219001
 20
-526.941638639
 10
610.4105757352
 20
-528.4280416243
 10
605.0691380993
 20
-529.5982268638
 10
599.8068139223
 20
-530.4498710631
 10
594.6340510618
 20
-530.9812833615
 10
589.5611195597
 20
-531.191408689
 10
584.5980912518
 20
-531.0798298612
 10
579.7548197715
 20
-530.6467684076
 10
575.040920986
 20
-529.8930841315
 10
570.465753905
 20
-528.8202734035
 10
566.0384020993
 20
-527.4304661897
 10
561.7676556659
 20
-525.7264218239
 10
557.6619937767
 20
-523.7115235284
 10
553.7295678434
 20
-521.3897716973
 10
549.9781853335
 20
-518.7657759538
 10
546.4152942698
 20
-515.8447459987
 10
543.0479684427
 20
-512.6324812666
 10
539.882893366
 20
-509.1353594116
 10
536.9263530032
 20
-505.3603236457
 10
534.1842172916
 20
-501.3148689528
 10
531.6619304878
 20
-497.0070272087
 10
529.3645003588
 20
-492.4453512346
 10
527.2964882394
 20
-487.6388978157
 10
525.4619999763
 20
-482.5972097206
 10
524.0711155098
 20
-478.0709785503
  0
LWPOLYLINE
  5
ED
330
1F
100
AcDbEntity
  8
0
  6
Continuous
 62
     7
370
    25
100
AcDbPolyline
 90
      134
 70
   128
 43
0.0
 10
504.7392338628
 20
-416.8186860815
 10
504.8634881111
 20
-410.6736501495
 10
505.235973596
 20
-404.398865294
 10
505.8558591568
 20
-398.0083330138
 10
506.7217615864
 20
-391.5163130852
 10
507.831748718
 20
-384.9372917432
 10
509.1833437362
 20
-378.2859493569
 10
510.773530704
 20
-371.5771276721
 10
512.5987612924
 20
-364.8257966932
 10
514.6549626985
 20
-358.0470212795
 10
516.9375467326
 20
-351.2559275297
 10
519.4414200575
 20
-344.4676690295
 10
522.1609955525
 20
-337.6973930377
 10
525.0902047814
 20
-330.9602066877
 10
528.2225115329
 20
-324.2711432764
 10
531.550926406
 20
-317.6451287199
 10
535.0680224055
 20
-311.0969482477
 10
538.765951515
 20
-304.6412134108
 10
542.6364622087
 20
-298.2923294781
 10
546.6709178637
 20
-292.064463292
 10
550.860316032
 20
-285.9715116574
 10
555.1953085281
 20
-280.0270703318
 10
559.6662222886
 20
-274.2444036882
 10
564.2630809566
 20
-268.636415117
 10
568.9756271432
 20
-263.2156182337
 10
573.7933453149
 20
-257.9941089556
 10
578.7054852587
 20
-252.9835385118
 10
583.7010860696
 20
-248.1950874441
 10
588.7690006089
 20
-243.6394406593
 10
593.8979203775
 20
-239.3267635867
 10
599.0764007498
 20
-235.2666794952
 10
604.2928865114
 20
-231.4682480201
 10
609.5357376426
 20
-227.9399449471
 10
614.7932552925
 20
-224.6896433001
 10
620.0537078835
 20
-221.724595773
 10
625.3053572889
 20
-219.0514185463
 10
630.5364850252
 20
-216.6760765236
 10
635.7354184012
 20
-214.6038700218
 10
640.8905565633
 20
-212.8394229438
 10
645.9903963828
 20
-211.3866724611
 10
651.0235581227
 20
-210.248860228
 10
655.9788108312
 20
-209.4285251486
 10
660.8450974018
 20
-208.9274977111
 10
665.6115592464
 20
-208.7468959036
 10
670.2675605248
 20
-208.8871227196
 10
674.8027118776
 20
-209.347865258
 10
679.2068936087
 20
-210.1280954221
 10
683.4702782665
 20
-211.2260722133
 10
687.5833525728
 20
-212.6393456162
 10
691.5369386506
 20
-214.364762065
 10
695.3222145033
 20
-216.398471481
 10
698.9307337004
 20
-218.7359358633
 10
702.3544442245
 20
-221.3719394149
 10
705.5857064387
 20
-224.300600181
 10
708.6173101336
 20
-227.5153831744
 10
711.4424906157
 20
-231.0091149571
 10
714.0549438029
 20
-234.7739996474
 10
716.4488402905
 20
-238.8016363154
 10
718.6188383593
 20
-243.0830377288
 10
720.5600958951
 20
-247.6086504069
 10
722.2682811934
 20
-252.3683759382
 10
723.7395826247
 20
-257.3515935139
 10
724.9707171403
 20
-262.547183627
 10
725.9589375976
 20
-267.9435528844
 10
726.7020388905
 20
-273.5286598762
 10
727.1983628693
 20
-279.2900420447
 10
727.4468020411
 20
-285.2148434936
 10
727.4468020411
 20
-291.289843674
 10
727.1983628693
 20
-297.501486885
 10
726.7020388905
 20
-303.8359125219
 10
725.9589375976
 20
-310.2789860041
 10
724.9707171403
 20
-316.8163303152
 10
723.7395826247
 20
-323.4333580838
 10
722.2682811934
 20
-330.1153041337
 10
720.5600958951
 20
-336.8472584303
 10
718.6188383593
 20
-343.6141993513
 10
716.4488402905
 20
-350.4010272054
 10
714.0549438029
 20
-357.1925979259
 10
711.4424906157
 20
-363.9737568629
 10
708.6173101336
 20
-370.7293725992
 10
705.5857064387
 20
-377.4443707145
 10
702.3544442245
 20
-384.1037674222
 10
698.9307337004
 20
-390.6927030044
 10
695.3222145033
 20
-397.1964749693
 10
691.5369386506
 20
-403.6005708586
 10
687.5833525728
 20
-409.8907006301
 10
683.4702782665
 20
-416.0528285448
 10
679.2068936087
 20
-422.0732044858
 10
674.8027118776
 20
-427.9383946402
 10
670.2675605248
 20
-433.6353114754
 10
665.6115592464
 20
-439.1512429423
 10
660.8450974018
 20
-444.4738808409
 10
655.9788108312
 20
-449.5913482848
 10
651.0235581227
 20
-454.4922262031
 10
645.9903963828
 20
-459.1655788208
 10
640.8905565633
 20
-463.6009780609
 10
635.7354184012
 20
-467.7885268132
 10
630.5364850252
 20
-471.7188810191
 10
625.3053572889
 20
-475.3832705215
 10
620.0537078835
 20
-478.7735186346
 10
614.7932552925
 20
-481.8820603891
 10
609.5357376426
 20
-484.7019594128
 10
604.2928865114
 20
-487.2269234086
 10
599.0764007498
 20
-489.4513181942
 10
593.8979203775
 20
-491.3701802752
 10
588.7690006089
 20
-492.9792279199
 10
583.7010860696
 20
-494.274870714
 10
578.7054852587
 20
-495.2542175716
 10
573.7933453149
 20
-495.915083187
 10
568.9756271432
 20
-496.2559929105
 10
564.2630809566
 20
-496.2761860394
 10
559.6662222886
 20
-495.9756175148
 10
555.1953085281
 20
-495.3549580227
 10
550.860316032
 20
-494.4155924969
 10
546.6709178637
 20
-493.1596170295
 10
542.6364622087
 20
-491.5898341927
 10
538.765951515
 20
-489.7097467858
 10
535.0680224055
 20
-487.5235500191
 10
531.550926406
 20
-485.0361221524
 10
528.2225115329
 20
-482.2530136098
 10
525.0902047814
 20
-479.1804345948
 10
522.1609955525
 20
-475.8252412327
 10
519.4414200575
 20
-472.1949202717
 10
516.9375467326
 20
-468.2975723775
 10
514.6549626985
 20
-464.1418940572
 10
512.5987612924
 20
-459.7371582541
 10
510.773530704
 20
-455.0931936561
 10
509.1833437362
 20
-450.2203627641
 10
507.831748718
 20
-445.1295387692
 10
506.7217615864
 20
-439.8320812905
 10
505.8558591568
 20
-434.3398110269
 10
505.235973596
 20
-428.664983381
 10
504.8634881111
 20
-422.8202611123
 10
504.7392338628
 20
-416.8186860815
  0
LWPOLYLINE
  5
EE
330
1F
100
AcDbEntity
  8
0
  6
Continuous
 62
     7
370
    25
100
AcDbPolyline
 90
      121
 70
   128
 43
0.0
 10
524.9624878048
 20
-405.1440500825
 10
525.0874003179
 20
-399.563469766
 10
525.4617954806
 20
-393.8539645145
 10
526.084647102
 20
-388.031183685
 10
526.9542479889
 20
-382.1110871149
 10
528.0682146258
 20
-376.1099013776
 10
529.4234937075
 20
-370.0440753059
 10
531.0163705084
 20
-363.9302349076
 10
532.8424790638
 20
-357.785137794
 10
534.896814137
 20
-351.6256272494
 10
537.1737449385
 20
-345.468586064
 10
539.6670305592
 20
-339.3308902597
 10
542.3698370765
 20
-333.229362834
 10
545.2747562856
 20
-327.1807276495
 10
548.3738260049
 20
-321.2015635949
 10
551.6585518997
 20
-315.3082591431
 10
555.1199307646
 20
-309.5169674322
 10
558.7484752008
 20
-303.84356199
 10
562.5342396202
 20
-298.3035932265
 10
566.4668475056
 20
-292.9122458112
 10
570.5355198522
 20
-287.6842970524
 10
574.7291047119
 20
-282.6340763943
 10
579.0361077602
 20
-277.7754261408
 10
583.4447238009
 20
-273.1216635143
 10
587.942869124
 20
-268.685544155
 10
592.5182146258
 20
-264.4792271574
 10
597.1582196023
 20
-260.5142417442
 10
601.8501661225
 20
-256.8014556648
 10
606.581193887
 20
-253.3510454077
 10
611.3383354775
 20
-250.1724683076
 10
616.1085518997
 20
-247.2744366234
 10
620.8787683219
 20
-244.6648936586
 10
625.6359099124
 20
-242.3509919889
 10
630.3669376769
 20
-240.3390738581
 10
635.0588841971
 20
-238.6346537938
 10
639.6988891736
 20
-237.2424034931
 10
644.2742346754
 20
-236.1661390171
 10
648.7723799985
 20
-235.4088103321
 10
653.1809960393
 20
-234.9724932233
 10
657.4879990875
 20
-234.8583836055
 10
661.6815839472
 20
-235.0667942454
 10
665.7502562938
 20
-235.5971539038
 10
669.6828641792
 20
-236.4480089018
 10
673.4686285986
 20
-237.6170271049
 10
677.0971730348
 20
-239.1010043155
 10
680.5585518997
 20
-240.8958730553
 10
683.8432777945
 20
-242.9967137138
 10
686.9423475138
 20
-245.3977680327
 10
689.8472667229
 20
-248.0924548892
 10
692.5500732402
 20
-251.0733883337
 10
695.0433588609
 20
-254.3323978349
 10
697.3202896624
 20
-257.8605506744
 10
699.3746247356
 20
-261.6481764304
 10
701.200733291
 20
-265.6848934841
 10
702.7936100919
 20
-269.9596374744
 10
704.1488891736
 20
-274.4606916254
 10
705.2628558105
 20
-279.1757188605
 10
706.1324566974
 20
-284.0917956176
 10
706.7553083188
 20
-289.1954472722
 10
707.1297034815
 20
-294.4726850699
 10
707.2546159946
 20
-299.9090444685
 10
707.1297034815
 20
-305.489624785
 10
706.7553083188
 20
-311.1991300365
 10
706.1324566974
 20
-317.021910866
 10
705.2628558105
 20
-322.9420074361
 10
704.1488891736
 20
-328.9431931734
 10
702.7936100919
 20
-335.0090192451
 10
701.200733291
 20
-341.1228596435
 10
699.3746247356
 20
-347.267956757
 10
697.3202896624
 20
-353.4274673016
 10
695.0433588609
 20
-359.584508487
 10
692.5500732402
 20
-365.7222042914
 10
689.8472667229
 20
-371.823731717
 10
686.9423475138
 20
-377.8723669015
 10
683.8432777945
 20
-383.8515309561
 10
680.5585518997
 20
-389.7448354079
 10
677.0971730348
 20
-395.5361271189
 10
673.4686285986
 20
-401.209532561
 10
669.6828641792
 20
-406.7495013245
 10
665.7502562938
 20
-412.1408487398
 10
661.6815839472
 20
-417.3687974986
 10
657.4879990875
 20
-422.4190181567
 10
653.1809960392
 20
-427.2776684103
 10
648.7723799985
 20
-431.9314310367
 10
644.2742346754
 20
-436.3675503961
 10
639.6988891736
 20
-440.5738673936
 10
635.0588841971
 20
-444.5388528068
 10
630.3669376769
 20
-448.2516388862
 10
625.6359099124
 20
-451.7020491433
 10
620.8787683219
 20
-454.8806262434
 10
616.1085518997
 20
-457.7786579276
 10
611.3383354775
 20
-460.3882008924
 10
606.581193887
 20
-462.7021025621
 10
601.8501661225
 20
-464.714020693
 10
597.1582196023
 20
-466.4184407572
 10
592.5182146258
 20
-467.810691058
 10
587.942869124
 20
-468.8869555339
 10
583.4447238009
 20
-469.6442842189
 10
579.0361077601
 20
-470.0806013277
 10
574.7291047119
 20
-470.1947109455
 10
570.5355198522
 20
-469.9863003056
 10
566.4668475056
 20
-469.4559406472
 10
562.5342396202
 20
-468.6050856493
 10
558.7484752008
 20
-467.4360674461
 10
555.1199307646
 20
-465.9520902355
 10
551.6585518997
 20
-464.1572214957
 10
548.3738260049
 20
-462.0563808372
 10
545.2747562856
 20
-459.6553265183
 10
542.3698370765
 20
-456.9606396619
 10
539.6670305592
 20
-453.9797062173
 10
537.1737449385
 20
-450.7206967161
 10
534.896814137
 20
-447.1925438766
 10
532.8424790638
 20
-443.4049181206
 10
531.0163705084
 20
-439.368201067
 10
529.4234937075
 20
-435.0934570766
 10
528.0682146258
 20
-430.5924029256
 10
526.9542479889
 20
-425.8773756906
 10
526.084647102
 20
-420.9612989334
 10
525.4617954806
 20
-415.8576472788
 10
525.0874003179
 20
-410.5804094811
 10
524.9624878048
 20
-405.1440500825
  0
LWPOLYLINE
  5
EF
330
1F
100
AcDbEntity
  8
0
  6
Continuous
 62
     7
370
    25
100
AcDbPolyline
 90
       40
 70
   128
 43
0.0
 10
565.9437450651
 20
-428.8020263247
 10
566.0686575782
 20
-423.2214460082
 10
566.443052741
 20
-417.5119407567
 10
567.0659043623
 20
-411.6891599272
 10
567.9355052492
 20
-405.7690633571
 10
569.0494718861
 20
-399.7678776198
 10
570.4047509679
 20
-393.7020515481
 10
571.9976277687
 20
-387.5882111498
 10
573.8237363241
 20
-381.4431140363
 10
575.8780713973
 20
-375.2836034916
 10
578.1550021988
 20
-369.1265623062
 10
580.6482878195
 20
-362.9888665019
 10
583.3510943368
 20
-356.8873390762
 10
586.2560135459
 20
-350.8387038917
 10
589.3550832652
 20
-344.8595398371
 10
592.63980916
 20
-338.9662353853
 10
596.101188025
 20
-333.1749436744
 10
599.7297324611
 20
-327.5015382322
 10
603.5154968805
 20
-321.9615694687
 10
607.4481047659
 20
-316.5702220534
 10
611.5167771126
 20
-311.3422732946
 10
615.7103619723
 20
-306.2920526365
 10
620.0173650205
 20
-301.433402383
 10
624.4259810612
 20
-296.7796397565
 10
628.9241263843
 20
-292.3435203972
 10
633.4994718861
 20
-288.1372033996
 10
638.1394768627
 20
-284.1722179864
 10
642.8314233828
 20
-280.459431907
 10
647.5624511473
 20
-277.0090216499
 10
652.3195927378
 20
-273.8304445498
 10
657.08980916
 20
-270.9324128656
 10
661.8600255822
 20
-268.3228699008
 10
666.6171671728
 20
-266.0089682311
 10
671.3481949372
 20
-263.9970501003
 10
676.0401414574
 20
-262.292630036
 10
680.6801464339
 20
-260.9003797353
 10
685.2554919358
 20
-259.8241152593
 10
689.7536372589
 20
-259.0667865743
 10
694.1622532996
 20
-258.6304694655
 10
697.7007188612
 20
-258.5130983376
  0
LWPOLYLINE
  5
F0
330
1F
100
AcDbEntity
  8
0
  6
Continuous
 62
     7
370
    25
100
AcDbPolyline
 90
       10
 70
   128
 43
0.0
 10
575.4976421985
 20
-470.1979724556
 10
573.8237363241
 20
-467.0628943628
 10
571.9976277687
 20
-463.0261773092
 10
570.4047509679
 20
-458.7514333188
 10
569.0494718861
 20
-454.2503791678
 10
567.9355052492
 20
-449.5353519328
 10
567.0659043623
 20
-444.6192751756
 10
566.443052741
 20
-439.515623521
 10
566.0686575782
 20
-434.2383857234
 10
565.9437450651
 20
-428.8020263247
  0
LWPOLYLINE
  5
F1
330
1F
100
AcDbEntity
  8
0
  6
Continuous
 62
     7
370
    25
100
AcDbPolyline
 90
       36
 70
   128
 43
0.0
 10
585.2330105587
 20
-453.244934492
 10
585.3586382364
 20
-447.3090927918
 10
585.7352138377
 20
-441.2427304616
 10
586.3618158189
 20
-435.0606929066
 10
587.23691078
 20
-428.7781086085
 10
588.358357217
 20
-422.4103521041
 10
589.7234107624
 20
-415.9730063603
 10
591.3287309017
 20
-409.4818246411
 10
593.1703891473
 20
-402.9526919558
 10
595.2438786529
 20
-396.4015861863
 10
597.5441252422
 20
-389.844538986
 10
600.0654998265
 20
-383.2975965483
 10
602.8018321795
 20
-376.7767803383
 10
605.7464260374
 20
-370.2980478862
 10
608.8920754858
 20
-363.8772537358
 10
612.2310825932
 20
-357.5301106463
 10
615.7552762497
 20
-351.2721511405
 10
619.4560321629
 20
-345.118689494
 10
623.324293963
 20
-339.0847842585
 10
627.3505953651
 20
-333.1852014114
 10
631.5250833349
 20
-327.4343782203
 10
635.837542201
 20
-321.8463879133
 10
640.2774186537
 20
-316.4349052392
 10
644.8338475715
 20
-311.2131730027
 10
649.4956786092
 20
-306.1939696578
 10
654.2515034851
 20
-301.389578036
 10
659.0896838988
 20
-296.8117552888
 10
663.9983800121
 20
-292.4717041154
 10
668.965579423
 20
-288.3800453485
 10
673.9791265622
 20
-284.5467919627
 10
679.0267524397
 20
-280.9813245713
 10
684.0961046692
 20
-277.6923684705
 10
689.1747776963
 20
-274.687972287
 10
694.2503431571
 20
-271.9754882818
 10
699.3103802922
 20
-269.5615543577
 10
702.2160201402
 20
-268.3077522891
  0
ARC
  5
F2
330
1F
100
AcDbEntity
  8
0
  6
Continuous
 62
     7
370
    25
100
AcDbCircle
 10
707.7350570622
 20
-453.5505830837
 30
0.0
 40
122.5024278069891
100
AcDbArc
 50
179.8570445272
 51
187.3441835211
  0
LWPOLYLINE
  5
F3
330
1F
100
AcDbEntity
  8
0
  6
Continuous
 62
     7
370
    25
100
AcDbPolyline
 90
       31
 70
   128
 43
0.0
 10
604.3453198626
 20
-463.6891932397
 10
604.7599550725
 20
-459.6480810761
 10
605.6330610007
 20
-453.0095316995
 10
606.7523806115
 20
-446.282397426
 10
608.1154897081
 20
-439.4812477304
 10
609.7194360996
 20
-432.6208123885
 10
611.5607459953
 20
-425.7159495756
 10
613.635431528
 20
-418.781613687
 10
615.9389993908
 20
-411.83282295
 10
618.4664605687
 20
-404.8846268982
 10
621.2123411435
 20
-397.952073777
 10
624.1706941494
 20
-391.0501779526
 10
627.3351124526
 20
-384.1938873946
 10
630.6987426276
 20
-377.3980513015
 10
634.2542998005
 20
-370.6773879411
 10
637.9940834261
 20
-364.0464527736
 10
641.909993966
 20
-357.5196069282
 10
645.9935504298
 20
-351.1109860994
 10
650.2359087437
 20
-344.834469933
 10
654.627880904
 20
-338.7036519654
 10
659.1599548773
 20
-332.731810183
 10
663.8223152003
 20
-326.9318782654
 10
668.6048642388
 20
-321.3164175736
 10
673.4972440567
 20
-315.897589945
 10
678.4888588486
 20
-310.6871313537
 10
683.5688978883
 20
-305.6963264926
 10
688.7263589427
 20
-300.9359843338
 10
693.9500720994
 20
-296.4164147183
 10
699.2287239589
 20
-292.1474060276
 10
704.5508821369
 20
-288.1382039839
 10
706.4904392349
 20
-286.7494849556
  0
LWPOLYLINE
  5
F4
330
1F
100
AcDbEntity
  8
0
  6
Continuous
 62
     7
370
    25
100
AcDbPolyline
 90
       27
 70
   128
 43
0.0
 10
614.7108918413
 20
-458.5731346653
 10
614.8167069702
 20
-458.0531258963
 10
616.4060383462
 20
-450.8389912199
 10
618.2317025986
 20
-443.5744721921
 10
620.2902244717
 20
-436.2733972377
 10
622.5776854521
 20
-428.9496643679
 10
625.0897312278
 20
-421.6172147244
 10
627.8215799769
 20
-414.2900060419
 10
630.7680314701
 20
-406.9819860786
 10
633.9234769695
 20
-399.7070660658
 10
637.2819099052
 20
-392.4790942273
 10
640.8369373093
 20
-385.3118294182
 10
644.5817919849
 20
-378.2189149345
 10
648.5093453885
 20
-371.2138525421
 10
652.6121211989
 20
-364.3099767753
 10
656.8823095491
 20
-357.520429554
 10
661.3117818929
 20
-350.8581351673
 10
665.892106478
 20
-344.3357756713
 10
670.6145643961
 20
-337.9657667479
 10
675.4701661803
 20
-331.7602340711
 10
680.4496689165
 20
-325.7309902251
 10
685.5435938383
 20
-319.8895122182
 10
690.7422443701
 20
-314.2469196359
 10
696.035724585
 20
-308.8139534738
 10
701.4139580428
 20
-303.6009556919
 10
706.8667069702
 20
-298.6178495275
 10
707.2436709405
 20
-298.28429227
  0
LINE
  5
F5
330
1F
100
AcDbEntity
  8
0
  6
Continuous
 62
     7
370
    25
100
AcDbLine
 10
-80.5297050428
 20
-396.111845024
 30
0.0
 11
-80.5297050428
 21
-448.111845024
 31
0.0
  0
LINE
  5
F6
330
1F
100
AcDbEntity
  8
0
  6
Continuous
 62
     7
370
    25
100
AcDbLine
 10
369.4702949572
 20
-448.111845024
 30
0.0
 11
369.4702949572
 21
-396.111845024
 31
0.0
  0
LINE
  5
F7
330
1F
100
AcDbEntity
  8
0
  6
Continuous
 62
     7
370
    25
100
AcDbLine
 10
-80.5297050428
 20
-448.111845024
 30
0.0
 11
-55.5297050428
 21
-454.0377709499
 31
0.0
  0
LINE
  5
F8
330
1F
100
AcDbEntity
  8
0
  6
Continuous
 62
     7
370
    25
100
AcDbLine
 10
344.4702949572
 20
-454.0377709499
 30
0.0
 11
369.4702949572
 21
-448.111845024
 31
0.0
  0
LINE
  5
F9
330
1F
100
AcDbEntity
  8
0
  6
Continuous
 62
     7
370
    25
100
AcDbLine
 10
-55.5297050428
 20
-454.0377709499
 30
0.0
 11
-55.5297050428
 21
-490.0377709499
 31
0.0
  0
LINE
  5
FA
330
1F
100
AcDbEntity
  8
0
  6
Continuous
 62
     7
370
    25
100
AcDbLine
 10
344.4702949572
 20
-490.0377709499
 30
0.0
 11
344.4702949572
 21
-454.0377709499
 31
0.0
  0
LINE
  5
FB
330
1F
100
AcDbEntity
  8
0
  6
Continuous
 62
     7
370
    25
100
AcDbLine
 10
-55.5297050428
 20
-490.0377709499
 30
0.0
 11
-33.0297050428
 21
-495.3711042833
 31
0.0
  0
LINE
  5
FC
330
1F
100
AcDbEntity
  8
0
  6
Continuous
 62
     7
370
    25
100
AcDbLine
 10
321.9702949572
 20
-495.3711042833
 30
0.0
 11
344.4702949572
 21
-490.0377709499
 31
0.0
  0
LINE
  5
FD
330
1F
100
AcDbEntity
  8
0
  6
Continuous
 62
     7
370
    25
100
AcDbLine
 10
-33.0297050428
 20
-495.3711042833
 30
0.0
 11
-33.0297050428
 21
-531.3711042833
 31
0.0
  0
LINE
  5
FE
330
1F
100
AcDbEntity
  8
0
  6
Continuous
 62
     7
370
    25
100
AcDbLine
 10
321.9702949572
 20
-531.3711042833
 30
0.0
 11
321.9702949572
 21
-495.3711042833
 31
0.0
  0
LINE
  5
FF
330
1F
100
AcDbEntity
  8
0
  6
Continuous
 62
     7
370
    25
100
AcDbLine
 10
-33.0297050428
 20
-531.3711042833
 30
0.0
 11
-13.0297050428
 21
-536.111845024
 31
0.0
  0
LINE
  5
100
330
1F
100
AcDbEntity
  8
0
  6
Continuous
 62
     7
370
    25
100
AcDbLine
 10
301.9702949572
 20
-536.111845024
 30
0.0
 11
321.9702949572
 21
-531.3711042833
 31
0.0
  0
LINE
  5
101
330
1F
100
AcDbEntity
  8
0
  6
Continuous
 62
     7
370
    25
100
AcDbLine
 10
-13.0297050428
 20
-536.111845024
 30
0.0
 11
-13.0297050428
 21
-572.111845024
 31
0.0
  0
LINE
  5
102
330
1F
100
AcDbEntity
  8
0
  6
Continuous
 62
     7
370
    25
100
AcDbLine
 10
301.9702949572
 20
-572.111845024
 30
0.0
 11
301.9702949572
 21
-536.111845024
 31
0.0
  0
LINE
  5
103
330
1F
100
AcDbEntity
  8
0
  6
Continuous
 62
     7
370
    25
100
AcDbLine
 10
-80.5297050428
 20
-448.111845024
 30
0.0
 11
369.4702949572
 21
-448.111845024
 31
0.0
  0
LINE
  5
104
330
1F
100
AcDbEntity
  8
0
  6
Continuous
 62
     7
370
    25
100
AcDbLine
 10
-80.5297050428
 20
-396.111845024
 30
0.0
 11
369.4702949572
 21
-396.111845024
 31
0.0
  0
LINE
  5
105
330
1F
100
AcDbEntity
  8
0
  6
Continuous
 62
     7
370
    25
100
AcDbLine
 10
-55.5297050428
 20
-454.0377709499
 30
0.0
 11
344.4702949572
 21
-454.0377709499
 31
0.0
  0
LINE
  5
106
330
1F
100
AcDbEntity
  8
0
  6
Continuous
 62
     7
370
    25
100
AcDbLine
 10
-55.5297050428
 20
-490.0377709499
 30
0.0
 11
344.4702949572
 21
-490.0377709499
 31
0.0
  0
LINE
  5
107
330
1F
100
AcDbEntity
  8
0
  6
Continuous
 62
     7
370
    25
100
AcDbLine
 10
-33.0297050428
 20
-495.3711042833
 30
0.0
 11
321.9702949572
 21
-495.3711042833
 31
0.0
  0
LINE
  5
108
330
1F
100
AcDbEntity
  8
0
  6
Continuous
 62
     7
370
    25
100
AcDbLine
 10
-33.0297050428
 20
-531.3711042833
 30
0.0
 11
321.9702949572
 21
-531.3711042833
 31
0.0
  0
LINE
  5
109
330
1F
100
AcDbEntity
  8
0
  6
Continuous
 62
     7
370
    25
100
AcDbLine
 10
-13.0297050428
 20
-536.111845024
 30
0.0
 11
301.9702949572
 21
-536.111845024
 31
0.0
  0
LINE
  5
10A
330
1F
100
AcDbEntity
  8
0
  6
Continuous
 62
     7
370
    25
100
AcDbLine
 10
-13.0297050428
 20
-572.111845024
 30
0.0
 11
301.9702949572
 21
-572.111845024
 31
0.0
  0
ENDSEC
  0
SECTION
  2
OBJECTS
  0
DICTIONARY
  5
C
330
0
100
AcDbDictionary
281
     1
  3
ACAD_GROUP
350
D
  3
ACAD_LAYOUT
350
1A
  3
ACAD_MLINESTYLE
350
17
  3
ACAD_PLOTSETTINGS
350
19
  3
ACAD_PLOTSTYLENAME
350
E
  3
ACAD_SCALELIST
350
47
  0
DICTIONARY
  5
D
102
{ACAD_REACTORS
330
C
102
}
330
C
100
AcDbDictionary
281
     1
  0
DICTIONARY
  5
1A
102
{ACAD_REACTORS
330
C
102
}
330
C
100
AcDbDictionary
281
     1
  3
Layout1
350
1E
  3
Layout2
350
26
  3
Model
350
22
  0
DICTIONARY
  5
17
102
{ACAD_REACTORS
330
C
102
}
330
C
100
AcDbDictionary
281
     1
  3
Standard
350
18
  0
DICTIONARY
  5
19
102
{ACAD_REACTORS
330
C
102
}
330
C
100
AcDbDictionary
281
     1
  0
ACDBDICTIONARYWDFLT
  5
E
102
{ACAD_REACTORS
330
C
102
}
330
C
100
AcDbDictionary
281
     1
  3
Normal
350
F
100
AcDbDictionaryWithDefault
340
F
  0
DICTIONARY
  5
47
102
{ACAD_REACTORS
330
C
102
}
330
C
100
AcDbDictionary
281
     1
  3
A0
350
48
  3
A1
350
49
  3
A2
350
4A
  3
A3
350
4B
  3
A4
350
4C
  3
A5
350
4D
  3
A6
350
4E
  3
A7
350
4F
  3
A8
350
50
  3
A9
350
51
  3
B0
350
52
  3
B1
350
53
  3
B2
350
54
  3
B3
350
55
  3
B4
350
56
  3
B5
350
57
  3
B6
350
58
  3
B7
350
59
  3
B8
350
5A
  3
B9
350
5B
  3
C0
350
5C
  3
C1
350
5D
  3
C2
350
5E
  3
C3
350
5F
  3
C4
350
60
  3
C5
350
61
  3
C6
350
62
  3
C7
350
63
  3
C8
350
64
  3
C9
350
65
  3
D0
350
66
  3
D1
350
67
  3
D2
350
68
  0
LAYOUT
  5
1E
102
{ACAD_REACTORS
330
1A
102
}
330
1A
100
AcDbPlotSettings
  1

  2
none_device
  4

  6

 40
0.0
 41
0.0
 42
0.0
 43
0.0
 44
0.0
 45
0.0
 46
0.0
 47
0.0
 48
0.0
 49
0.0
140
0.0
141
0.0
142
1.0
143
1.0
 70
   688
 72
     1
 73
     0
 74
     5
  7

 75
    16
147
1.0
148
0.0
149
0.0
100
AcDbLayout
  1
Layout1
 70
     1
 71
     1
 10
0.0
 20
0.0
 11
420.0
 21
297.0
 12
0.0
 22
0.0
 32
0.0
 14
1.0000000000E+20
 24
1.0000000000E+20
 34
1.0000000000E+20
 15
-1.0000000000E+20
 25
-1.0000000000E+20
 35
-1.0000000000E+20
146
0.0
 13
0.0
 23
0.0
 33
0.0
 16
1.0
 26
0.0
 36
0.0
 17
0.0
 27
1.0
 37
0.0
 76
     0
330
1B
  0
LAYOUT
  5
26
102
{ACAD_REACTORS
330
1A
102
}
330
1A
100
AcDbPlotSettings
  1

  2
none_device
  4

  6

 40
0.0
 41
0.0
 42
0.0
 43
0.0
 44
0.0
 45
0.0
 46
0.0
 47
0.0
 48
0.0
 49
0.0
140
0.0
141
0.0
142
1.0
143
1.0
 70
   688
 72
     1
 73
     0
 74
     5
  7

 75
    16
147
1.0
148
0.0
149
0.0
100
AcDbLayout
  1
Layout2
 70
     1
 71
     2
 10
0.0
 20
0.0
 11
0.0
 21
0.0
 12
0.0
 22
0.0
 32
0.0
 14
0.0
 24
0.0
 34
0.0
 15
0.0
 25
0.0
 35
0.0
146
0.0
 13
0.0
 23
0.0
 33
0.0
 16
1.0
 26
0.0
 36
0.0
 17
0.0
 27
1.0
 37
0.0
 76
     0
330
23
  0
LAYOUT
  5
22
102
{ACAD_REACTORS
330
1A
102
}
330
1A
100
AcDbPlotSettings
  1

  2
none_device
  4
Letter_(8.50_x_11.00_Inches)
  6

 40
6.35
 41
6.35
 42
6.35000508
 43
6.35000508
 44
215.9
 45
279.4
 46
0.0
 47
0.0
 48
0.0
 49
0.0
140
0.0
141
0.0
142
1.0
143
1.0
 70
  1712
 72
     1
 73
     0
 74
     0
  7

 75
     0
147
1.0
148
0.0
149
0.0
100
AcDbLayout
  1
Model
 70
     1
 71
     0
 10
0.0
 20
0.0
 11
279.4
 21
215.9
 12
0.0
 22
0.0
 32
0.0
 14
0.0
 24
0.0
 34
0.0
 15
279.4
 25
215.9
 35
0.0
146
0.0
 13
0.0
 23
0.0
 33
0.0
 16
1.0
 26
0.0
 36
0.0
 17
0.0
 27
1.0
 37
0.0
 76
     0
330
1F
331
29
  0
MLINESTYLE
  5
18
102
{ACAD_REACTORS
330
17
102
}
330
17
100
AcDbMlineStyle
  2
Standard
 70
     0
  3

 62
   256
 51
90.0
 52
90.0
 71
     2
 49
0.5
 62
   256
  6
BYLAYER
 49
-0.5
 62
   256
  6
BYLAYER
  0
ACDBPLACEHOLDER
  5
F
102
{ACAD_REACTORS
330
E
102
}
330
E
  0
SCALE
  5
48
102
{ACAD_REACTORS
330
47
102
}
330
47
100
AcDbScale
 70
     0
300
1:1
140
1.0
141
1.0
290
     1
  0
SCALE
  5
49
102
{ACAD_REACTORS
330
47
102
}
330
47
100
AcDbScale
 70
     0
300
1:2
140
1.0
141
2.0
290
     0
  0
SCALE
  5
4A
102
{ACAD_REACTORS
330
47
102
}
330
47
100
AcDbScale
 70
     0
300
1:4
140
1.0
141
4.0
290
     0
  0
SCALE
  5
4B
102
{ACAD_REACTORS
330
47
102
}
330
47
100
AcDbScale
 70
     0
300
1:5
140
1.0
141
5.0
290
     0
  0
SCALE
  5
4C
102
{ACAD_REACTORS
330
47
102
}
330
47
100
AcDbScale
 70
     0
300
1:8
140
1.0
141
8.0
290
     0
  0
SCALE
  5
4D
102
{ACAD_REACTORS
330
47
102
}
330
47
100
AcDbScale
 70
     0
300
1:10
140
1.0
141
10.0
290
     0
  0
SCALE
  5
4E
102
{ACAD_REACTORS
330
47
102
}
330
47
100
AcDbScale
 70
     0
300
1:16
140
1.0
141
16.0
290
     0
  0
SCALE
  5
4F
102
{ACAD_REACTORS
330
47
102
}
330
47
100
AcDbScale
 70
     0
300
1:20
140
1.0
141
20.0
290
     0
  0
SCALE
  5
50
102
{ACAD_REACTORS
330
47
102
}
330
47
100
AcDbScale
 70
     0
300
1:30
140
1.0
141
30.0
290
     0
  0
SCALE
  5
51
102
{ACAD_REACTORS
330
47
102
}
330
47
100
AcDbScale
 70
     0
300
1:40
140
1.0
141
40.0
290
     0
  0
SCALE
  5
52
102
{ACAD_REACTORS
330
47
102
}
330
47
100
AcDbScale
 70
     0
300
1:50
140
1.0
141
50.0
290
     0
  0
SCALE
  5
53
102
{ACAD_REACTORS
330
47
102
}
330
47
100
AcDbScale
 70
     0
300
1:100
140
1.0
141
100.0
290
     0
  0
SCALE
  5
54
102
{ACAD_REACTORS
330
47
102
}
330
47
100
AcDbScale
 70
     0
300
2:1
140
2.0
141
1.0
290
     0
  0
SCALE
  5
55
102
{ACAD_REACTORS
330
47
102
}
330
47
100
AcDbScale
 70
     0
300
4:1
140
4.0
141
1.0
290
     0
  0
SCALE
  5
56
102
{ACAD_REACTORS
330
47
102
}
330
47
100
AcDbScale
 70
     0
300
8:1
140
8.0
141
1.0
290
     0
  0
SCALE
  5
57
102
{ACAD_REACTORS
330
47
102
}
330
47
100
AcDbScale
 70
     0
300
10:1
140
10.0
141
1.0
290
     0
  0
SCALE
  5
58
102
{ACAD_REACTORS
330
47
102
}
330
47
100
AcDbScale
 70
     0
300
100:1
140
100.0
141
1.0
290
     0
  0
SCALE
  5
59
102
{ACAD_REACTORS
330
47
102
}
330
47
100
AcDbScale
 70
     0
300
1/128" = 1'-0"
140
0.0078125
141
12.0
290
     0
  0
SCALE
  5
5A
102
{ACAD_REACTORS
330
47
102
}
330
47
100
AcDbScale
 70
     0
300
1/64" = 1'-0"
140
0.015625
141
12.0
290
     0
  0
SCALE
  5
5B
102
{ACAD_REACTORS
330
47
102
}
330
47
100
AcDbScale
 70
     0
300
1/32" = 1'-0"
140
0.03125
141
12.0
290
     0
  0
SCALE
  5
5C
102
{ACAD_REACTORS
330
47
102
}
330
47
100
AcDbScale
 70
     0
300
1/16" = 1'-0"
140
0.0625
141
12.0
290
     0
  0
SCALE
  5
5D
102
{ACAD_REACTORS
330
47
102
}
330
47
100
AcDbScale
 70
     0
300
3/32" = 1'-0"
140
0.09375
141
12.0
290
     0
  0
SCALE
  5
5E
102
{ACAD_REACTORS
330
47
102
}
330
47
100
AcDbScale
 70
     0
300
1/8" = 1'-0"
140
0.125
141
12.0
290
     0
  0
SCALE
  5
5F
102
{ACAD_REACTORS
330
47
102
}
330
47
100
AcDbScale
 70
     0
300
3/16" = 1'-0"
140
0.1875
141
12.0
290
     0
  0
SCALE
  5
60
102
{ACAD_REACTORS
330
47
102
}
330
47
100
AcDbScale
 70
     0
300
1/4" = 1'-0"
140
0.25
141
12.0
290
     0
  0
SCALE
  5
61
102
{ACAD_REACTORS
330
47
102
}
330
47
100
AcDbScale
 70
     0
300
3/8" = 1'-0"
140
0.375
141
12.0
290
     0
  0
SCALE
  5
62
102
{ACAD_REACTORS
330
47
102
}
330
47
100
AcDbScale
 70
     0
300
1/2" = 1'-0"
140
0.5
141
12.0
290
     0
  0
SCALE
  5
63
102
{ACAD_REACTORS
330
47
102
}
330
47
100
AcDbScale
 70
     0
300
3/4" = 1'-0"
140
0.75
141
12.0
290
     0
  0
SCALE
  5
64
102
{ACAD_REACTORS
330
47
102
}
330
47
100
AcDbScale
 70
     0
300
1" = 1'-0"
140
1.0
141
12.0
290
     0
  0
SCALE
  5
65
102
{ACAD_REACTORS
330
47
102
}
330
47
100
AcDbScale
 70
     0
300
1-1/2" = 1'-0"
140
1.5
141
12.0
290
     0
  0
SCALE
  5
66
102
{ACAD_REACTORS
330
47
102
}
330
47
100
AcDbScale
 70
     0
300
3" = 1'-0"
140
3.0
141
12.0
290
     0
  0
SCALE
  5
67
102
{ACAD_REACTORS
330
47
102
}
330
47
100
AcDbScale
 70
     0
300
6" = 1'-0"
140
6.0
141
12.0
290
     0
  0
SCALE
  5
68
102
{ACAD_REACTORS
330
47
102
}
330
47
100
AcDbScale
 70
     0
300
1'-0" = 1'-0"
140
12.0
141
12.0
290
     0
  0
ENDSEC
  0
EOF
